Guitaretab - guitar tabs
Song name
# A B C D E F G H I J K L M N O P Q R S T U V W X Y Z

Reel Big Fish - Somebody Hates Me tab

artist:qbo
song:rien
album:qbo
transcribed by maxz
tabbed by trpelonchaspunk

                                 "RIEN"

 G-----------------------------------------|
 D-----------------------------------------|
 A-----------------------------------------|
 E-----------------------------------------|
 B--33333333-------------------------------|


    INTRO
   DO WITH SLAP AFTER GUITARīS INTRO
 G--------------------------------------------------------------------|
 D--------------------------------------------------------------------|
 A--------------------------------------------------------------------| X2
 E--------------------------------------------------------------------|
 B-1-3--1--3--1--3--1--3--1--3/4--------------------------------------|

 G--------------------------------------------------------------------|
 D--------------------------------------------------------------------|
 A--------------------------------------------------------------------| X4
 E---------------------55555555--3333/5--3----------------------------|
 B--55555555--33333333------------------------------------------------|

 G-------------------------------------------|
 D-------------------------------------------|
 A-------------------------------------------|
 E-------------------------------------------|
 B--33333333---------------------------------|

   CHORUS
[ Tab from: http://www.guitaretab.com/r/reel-big-fish/26709.html ]
 G--------------------------------------------------------------------|
 D--------------------------------------------------------------------|
 A--------------------------------------------------------------------| X3
 E--------------------------------------------------------------------|
 B-5555555---77777777---99999999/101010-------------------------------|

 REPEAT THE INTRO
 G--------------------------------------------------------------------|
 D--------------------------------------------------------------------|
 A--------------------------------------------------------------------| X4
 E--------------------55555555--33333/5--3----------------------------|
 B--55555555-33333333-------------------------------------------------|

   CHORUS

 G--------------------------------------------------------------------|
 D--------------------------------------------------------------------|
 A--------------------------------------------------------------------|
 E--------------------------------------------------------------------|
 B--5555555---77777777---99999999/101010------------------------------|

 G---------------------------------------------------|
 D---------------------------------------------------|
 A---------------------------------------------------|
 E---------------------------------------------------|
 B-3333333333333333----------------------------------|

 SLAP PART
IS LIKE THE INTRO BUT WITH SLAP

 G-------------------------------------------------------------------|
 D-------------------------------------------------------------------|
 A-------------------------------------------------------------------| X2
 E-------------------------------------------------------------------|
 B-1--3--1--3-1--3--1/5----------------------------------------------|

AT THE FINAL DO THE CHORUS

AND:
 G------------|
 D------------|
 A------------|
 E------------|
 B--3333------|

 ok iīm oscar or trpelonchaspunk please send me your comments to maxz6@hotmail.com is a 
tab please rate them thanks! and byke!
Related for Somebody Hates Me tab
Advertisement will be closed in 10 seconds