Guitaretab - guitar tabs
Song name
# A B C D E F G H I J K L M N O P Q R S T U V W X Y Z

Reel Big Fish - Snoop Dog Baby tab

-------------------------------------------------------------------------------
			     Reel Big Fish  Snoop Dog Baby
-------------------------------------------------------------------------------
Key: 
    >>: Let Ring
    p:Pull-off
    h:Hammer-on

By: Mike 

Intro + Verse: Play around with these chords if you want!
(The chord in brackets is the chord you have to slide to for each chord)
e|----------------|
B|----------------|
G|---------(4)/5--|
D|--(7)\5-(4)/5--|
A|--(7)\5-(2)/3--|
E|--(5)\3---------|
[ Tab from: http://www.guitaretab.com/r/reel-big-fish/30999.html ]
Chorus + SubChorus (The Bit after the chorus)
e|-------------------|-------------------|-------------------7>>-7-8-7-----|
B|-------------------|-------------------|-------------------8>>--h-p-8---|
G|----------5-5-5-5--|--555-555-555-555--|-7---7----9---9----7>>---------7-|
D|--5-5-5-5-5-5-5-5--|--555-555-555-555--|---7---7----9---9-5>>-----------|
A|--5-5-5-5-3-3-3-3--|--323-323-323-323--|-5--------7----------------------|
E|--5-5-5-5----------|-------------------|---------------------------------|

SubChorus (Continued)
e|----------------7>>-------|-----------------|
B|----------------8>>-------|-----------------|
G|-5---5----7---77>>-------|--5>-5-4>-4-2>>--|
D|---5---5----7---5>>-------|--5>-5-4>-4-2>>--|
A|-3--------5---------------|--3>-3-2>-2-0>>--|
E|--------------------------|-----------------|

Check this tab out. I have been waiting for some to tab it up for ages so
I sat down and worked the damn thing out. This is my second tab. Please rate
it, THANX!
===============================================================================
Related for Snoop Dog Baby tab