Song name
# A B C D E F G H I J K L M N O P Q R S T U V W X Y Z

Reel Big Fish - Your Guts I Hate Em tab

INTRO (2X)
E|------------------------------------------------------------------------|
B|------------------------------------------------------------------------|
G|------------------------------------------------------------------------|
D|--------2-5-------------------------------------------------------------|
A|--3-3-3-------------3----------5------3-3-3-------------3----------5----|
E|--------------1-1-1---1--3-3-3---3----------5-3---1-1-1---1--3-3-3---3--|

PRE-CHORUS (3X)                        Use Wah on last measure :)
E|----------5--5----1--1-/--3--3----|-------------------------------------|
B|--5--5----5--5----1--1-/--3--3----|-------------------------------------|
G|--5--5----6--6----2--2-/--4--4----|-------------------------------------|
D|--5--5----7--7----3--3-/--5--5----|--5-5---3-3-3---4---5-5--------------|
A|--3--3----7--7----3--3-/--5--5----|--3-3---1-1-1---2---3-3--------------|
E|----------5--5----1--1-/--3--3----|-------------------------------------|

CHORUS - same as pre-chorus

VERSE (or whatever it is?) (3X)        Why won't you go away??

E|--1--1--1--/--5--5-----3--3-----|----1----------------3------------------|
B|--1--1--1--/--5--5-----3--3-----|----1----------------3------------------|
G|--2--2--2--/--6--6-----4--4-----|----2----------------4------------------|
D|--3--3--3--/--7--7-----5--5-----|----3----------------5------------------|
A|--3--3--3--/--7--7-----5--5-----|----3----------------5------------------|
E|--1--1--1--/--5--5-----3--3-----|----1----------------3------------------|

let first F chord ring out then quick ska down/upstroke for next two F chords!


CHORUS (4X) except on last G chord use distortion and let ring out!

FINAL VERSE? (2X) distortion and palm muting (where needed) it's not too hard to figure 
out :)

                                     ...hope you fucking die!!! (ring out last chord)

E|-------------------------------------------------------------------------|
B|-------------------------------------------------------------------------|
G|-------------------------------------------------------------------------|
D|--5-5-5-5--5-5-5-5--2-2-2-2--3-3-3-3--5-5-5-5-----------5----------------|
A|--3-3-3-3--2-2-2-2--0-0-0-0--3-3-3-3--5-5-5-5-----------3----------------|
E|-----------------------------1-1-1-1--3-3-3-3----------------------------|


first tab so don't hate haha i love REEL BIG FISH so if there are any other songs you 
want me to tab let me know and i will give it a shot! hey hey!!
Tap to rate this tab
# A B C D E F G H I J K L M N O P Q R S T U V W X Y Z