Song name
# A B C D E F G H I J K L M N O P Q R S T U V W X Y Z

Reel Big Fish - Famous Last Words tab

-------------------------------------------------------------------------------
                                      FAMOUS LAST WORDS - Reel Big Fish
-------------------------------------------------------------------------------
Tabbed by: JBz

Tuning: Standard

A nice simple song that sounds great, from their new album 'Candy Coated Fury'.

Intro

e|----------------------------------------------|
B|----------------------------------------------|
G|--------------------------------------1-------| (x2)
D|-------------------1\-----5-5-5----------5--4-|
A|----5-5-5--------------3--------3--5----------|
E|-3--------3--5--5-----------------------------|
   .  . . . .  .  .  .   .  . . . .  .  .  .  .

Verse

Play as short upstroke ska chords

e|-3--3--5--5--3--3--/5--5-|
B|-3--3--5--5--5--5--/7--7-|
G|-4--4--5--5--5--5--/7--7-| (x4)
D|-5--5--7--7--5--5--/7--7-|
A|-5--5--7--7--3--3--/5--5-|
E|-3--3--5--5--------------|

Chorus

e|-3--3--3--3--3--3--3--3--5--5--3--3--3--3--3--3----|
B|-5--5--5--5--3--3--3--3--7--7--5--5--3--3--3--3----|
G|-5--5--5--5--4--4--4--4--7--7--5--5--4--4--4--4----|
D|-5--5--5--5--5--5--5--5--7--7--5--5--5--5--5--5----|
A|-3--3--3--3--5--5--5--5--5--5--3--3--5--5--5--5----|
E|-------------3--3--3--3--------------3--3--3--3----|

This plays twice, but second time through end with a sustained downstroke

e|-3--3-3---|
B|-3--3-3---|
G|-4--4-4---|
D|-5--5-5---|
A|-5--5-5---|
E|-3--3-3---|

Bridge

e|-7--7--7--7--3--3--3--3--3--3--3--3--5--5--5--5--7--7--7--7--3--3--3--3-5----3----3----|
B|-8--8--8--8--3--3--3--3--5--5--5--5--7--7--7--7--8--8--8--8--3--3--3--3-7----5----3----|
G|-9--9--9--9--4--4--4--4--5--5--5--5--7--7--7--7--9--9--9--9--4--4--4--4-7----5----4----|
D|-9--9--9--9--5--5--5--5--5--5--5--5--7--7--7--7--9--9--9--9--5--5--5--5-7----5----5----|
A|-7--7--7--7--5--5--5--5--3--3--3--3--5--5--5--5--7--7--7--7--5--5--5--5-5----3----5----|
E|-------------3--3--3--3--------------------------------------3--3--3--3-----------3----|



The strum pattern changes slightly during the trombone solo and the final chorus, but 
it's easy enough to pick up.


************************************

| /   slide up
| \   slide down
| .   palm mute

************************************
Tap to rate this tab
 
# A B C D E F G H I J K L M N O P Q R S T U V W X Y Z