Song name
# A B C D E F G H I J K L M N O P Q R S T U V W X Y Z

Reel Big Fish - Turn The Radio Off tab

So, I decided to put together a collection of Reel Big Fish tabs from the
album "Turn Radio Off" Thanks to all the people who have posted these tabs
on various Reel Big Fish sites. Most of the tabs on here have the
contributor's name near the top of each tab. Most tabs were posted on fan
sites and I could not find out the name of the contributor...if 
of your tabs are in here and your name is not listed...leave a comment
saying your user name and which tab is yours. and I will list your name.
With all that, ENJOY!!!

==========================================================================


Song: Sell Out
Band: Reel Big Fish
Album: Turn the Radio Off


intro:
     G#  G  G#                 G#  G  G#  D#
e||-----------|-------------||----------|----------|
B||-----------|-----------3x||----------|----------|
G||*-5-5-44-5-|------------*||-5-5-44-5-|-88888888-|
D||*-6-6-55-6-|--5-8---3-6-*||-6-6-55-6-|-88888888-|
A||--6-6-55-6-|6-----4------||-6-6-55-6-|-66666666-|
E||--4-4-33-4-|-------------||-4-4-33-4-|----------|

main riff:
    G#         A#         C#         D#
e|--4-4-4-46-|-(6)6-6-6-|----------|-----------|4x
B|--4-4-4-46-|-(6)6-6-6-|-6-6-6-68-|-(8)8-8-8--|
G|*-5-5-5-57-|-(7)7-7-7-|-6-6-6-68-|-(8)8-8-8-*|
D|*-6-6-6-68-|-(8)8-8-8-|-6-6-6-68-|-(8)8-8-8-*|
A|--6-6-6-68-|-(8)8-8-8-|-4-4-4-46-|-(6)6-6-6--|
E|--4-4-4-46-|-(6)6-6-6-|----------|-----------|

verse 1(clean):

   G#                A#                C#                D#            2x
e|-4-4-x-4-x-4-x-4-|-x-6-x-6-x-6-x-6-|-4-4-x-4-x-4-x-4-|-x-6-x-6-x-6-x-6-|
B|-4-4-x-4-x-4-x-4-|-x-6-x-6-x-6-x-6-|-6-6-x-6-x-6-x-6-|-x-8-x-8-x-8-x-8-|
G|*5-5--(5)-(5)-(5)|--(7)-(7)-(7)-(7)|-6-6--(6)-(6)-(6)|--(8)-(8)-(8)---*|
D|*6-6--(6)-(6)-(6)|--(8)-(8)-(8)-(8)|-6-6--(6)-(6)-(6)|--(8)-(8)-(8)---*|
A|-----------------|-----------------|-----------------|-----------------|
E|-----------------|-----------------|-----------------|-----------------|

play main riff x1

verse 2:
   G#                A#                C#                D#
e|-4-4-x-4-x-4-x-4-|-x-6-x-6-x-6-x-6-|-4-4-x-4-x-4-x-4-|-x-6-x-6-x-6-x-6-|
B|-4-4-x-4-x-4-x-4-|-x-6-x-6-x-6-x-6-|-6-6-x-6-x-6-x-6-|-x-8-x-8-x-8-x-8-|
G|-5-5--(5)-(5)-(5)|--(7)-(7)-(7)-(7)|-6-6--(6)-(6)-(6)|--(8)-(8)-(8)-(8)|
D|-6-6--(6)-(6)-(6)|--(8)-(8)-(8)-(8)|-6-6--(6)-(6)-(6)|--(8)-(8)-(8)-(8)|
A|-----------------|-----------------|-----------------|-----------------|
E|-----------------|-----------------|-----------------|-----------------|
   G#                A#               C(distorted)C#        D#
e|-4-4-x-4-x-4-x-4-|-x-6-x-6-x-6-x-6-|----------|---------|---------|----|
B|-4-4-x-4-x-4-x-4-|-x-6-x-6-x-6-x-6-|----------|---------|---------|----|
G|-5-5--(5)-(5)-(5)|--(7)-(7)-(7)-(7)|-5-5-5-5--|-6-6-6-6-|-8-8-8-8-|----|
D|-6-6--(6)-(6)-(6)|--(8)-(8)-(8)-(8)|-5-5-5-5--|-6-6-6-6-|-8-8-8-8-|----|
A|-----------------|-----------------|-3-3-3-3--|-4-4-4-4-|-6-6-6-6-|----|
E|-----------------|-----------------|----------|---------|---------|----|
   D#    C#
e|-------------|
B|-------------|
G|-8-8---6-6-6-|
D|-8-8---6-6-6-|
A|-6-6-x-4-4-4-|
E|-------------|

riff X:

    G#        Cm      A#m       C#    3x  C#  D#  C C# D#
e||-4-4-x-4-x-3-x-3-|-x-6-x-6-x-4-x-4--||-------|----------|
B||-4-4-x-4-x-4-x-4-|-x-6-x-6-x-6-x-6--||-------|----------|
G||*5(5)-(5)-(5)-(5)|--(6)-(6)-(6)-(6)*||-6---8-|-5-6--8-\-|
D||*6(6)-(6)-(5)-(5)|--(8)-(8)-(6)-(6)*||-6---8-|-5-6--8-\-|
A||-----------------|------------------||-4---6-|-3-4--6-\-|
E||-----------------|------------------||-------|----------|
    (clean)                              (distort)

chorus(clean)

     G#           C#    D#    3x    G#        G#
e||--x--4--x--4-|-x--4--X--6---||-x-4--x--4-|------------|
B||--x--4--x--4-|-x--6--x--8---||-x-4--x--4-|------------|
G||*---(5)---(5)|---(6)---(8)-*||--(5)---(5)|------------|
D||*---(6)---(6)|---(6)---(8)-*||--(6)---(6)|-6----------|
A||-------------|--------------||-----------|-6---xx-x-xx|
E||-------------|--------------||-----------|-4---xx-x-xx|
                                 (distort)

main riff 4x

verse 1

verse 2

riff X

chorus

intro w/o last measure, then
   D#            Cm   C#   G#   G#    A#   C#   G#   G#
e|-----------||-----|----|----|----||----|----|----|----|
B|-----------||--4--|-6--|----|----||----|-6--|----|----|
G|--(pm..)---||*-5--|-6--|-5--|-5-*||-7--|-6--|-5--|-5--|
D|-8-8888-88-||*-5--|-6--|-6--|-6-*||-8--|-6--|-6--|-6--|
A|-6-6666-66-||--3--|-4--|-6--|-6--||-8--|-4--|-6--|-6--|
E|-----------||-----|----|-4--|-4--||-6--|----|-4--|-4--|
   A#   C    C#   D#   D#   D#    C#
e|----|----|----|----|----|-------------|
B|----|-4--|-6--|-8--|-8--|-------------|
G|-7--|-5--|-6--|-8--|-8--|-8-8---6-6-6-|
D|-8--|-5--|-6--|-8--|-8--|-8-8---6-6-6-|
A|-8--|-3--|-4--|-6--|-6--|-6-6-x-4-4-4-|
E|-6--|----|----|----|----|-------------|

riff X

Chorus only repeat 1st 2 measures 2x, then rest, then last measure

main riff till end

solo!:                                                                 G#
----------------------------------------------------------------------4--|
---------------------------------------------------9999999999999999---4--|
--------5h65---8--65--6-5------8h6-56--5-6-5--------------------------5--|
--6--6--------------------6------------------6-----6666666666666666---6--|
----------------------------------------------------------------------6--|
----------------------------------------------------------------------4--|


NOTES: Sometimes during the verses, the G# slides up to the A#, and C# to D#.


============================================================================


Song: Trendy
Band: Reel Big Fish
Album: Turn the Radio Off


intro:(clean)
     C      A#   G                      C      A#   G             F
e||--------------3-|---------------3x||-------------3-|--------------|
B||--5--5-5-3--3-3-|-----------------||-5--5-5-3--3-3-|--------------|
G||*-5--5-5-3--3-4-|-x-x--x--x--x-x-*||-5--5-5-3--3-4-|--------------|
D||*-5--5-5-3--3-5-|-x-x--x--x--x-x-*||-5--5-5-3--3-5-|--(distorted)-|
A||--3--3-3-1--1---|-x-x--x--x--x-x--||-3--3-3-1--1---|-----------3/-|
E||----------------|-x-x--x--x--x-x--||---------------|-----------1/-|
     C      A#   G    G    F F#G     C      A#   G
e||----------------|------------3x||---------------|
B||----------------|--------------||---------------|
G||*-5--5-5-3--3---|-------------*||-5--5-5-3--3---|
D||*-5--5-5-3--3-5-|--5--5-------*||-5--5-5-3--3-5-|
A||--3--3-3-1--1-5-|--5--5--------||-3--3-3-1--1-5-|
E||--------------3-|--3--3-1-2-3--||-------------3-|

e|----------------|--------------3-|
B|--3^5^3---------|--------------3-|
G|--------4--54---|--(distorted)-4-|
D|-------------75-|----------------|
A|--(clean)-------|-----3-2-0------|
E|----------------|-----------3----|

riff 1:
     G                 C                 G                 F              4x
e||--3-3-x-3-x-3-x-3-|-----------------|-x-3-x-3-x-3-x-3-|-x-1-x-1-x-1-x-1-||
B||--3-3-x-3-x-3-x-3-|-x-5-x-5-x-5-x-5-|-x-3-x-3-x-3-x-3-|-x-1-x-1-x-1-x-1-||
G||*-4-4-x-4-x-4-x-4-|-x-5-x-5-x-5-x-5-|-x-4-x-4-x-4-x-4-|-x-2-x-2-x-2-x-2*||
D||*-5-5-x-5-x-5-x-5-|-x-5-x-5-x-5-x-5-|-x-5-x-5-x-5-x-5-|-x-3-x-3-x-3-x-3*||
A||------------------|-----------------|-----------------|-----------------||
E||------------------|-----------------|-----------------|-----------------||

verse:2x
   G                     C                    G                    F
e|---------------------|-x-8--x-8--x-8--x-8-|-----------------|-x-8---------|
B|-12-12-x-12-x-12-x-12|-x-8--x-8--x-8--x-8-|-x-12-x-12-------|-x-10--------|
G|-12-12-x-12-x-12-x-12|-x-9--x-9--x-9--x-9-|-x-12-x-12-------|-x-10--------|
D|-12-12-x-12-x-12-x-12|-x-10-x-10-x-10-x-10|-x-12-x-12-etc...|-x-10-etc...-|
A|-10-10---------------|--------------------|-----------------|-------------|
E|---------------------|--------------------|-----------------|-------------|

riff 2                   _1______________________2____________
     G   C   D          | G   C   D             | G  C  D     |
e||---------------------|----------------------||-------------|
B||---------------------|----------7-8-10-8-7--||----------r--|
G||*----5--7------------|----5---7------------*||----5--7--e--|
D||*-5--5--7------------|-5--5---7------------*||-5--5--7--s--|
A||--5--3--5-?\-(0)^2^0-|-5--3---5-------------||-5--3--5--t--|
E||--3-------?\---------|-3--------------------||-3-----------|

then:(clean)
   G       Bm        C
e|-3-3-x-3-x-2-x-2-|-x-3-x-3-x-3-x-3-|8x
B|-3-3-x-3-x-3-x-3-|-x-5-x-5-x-5-x-5-|
G|-4-4-x-4-x-4-x-4-|-x-5-x-5-x-5-x-5-|("Everybody does it.....")
D|-5-5-x-5-x-4-x-4-|-x-5-x-5-x-5-x-5-|
A|-5-5-------------|-----------------|
E|-3-3-------------|-----------------|

then:
   C                 G            D    D
e|-----------------|-----------------|------------|
B|-5-5-x-5-x-5-x-5-|-3-3-x-3-x-3--7--|-7----------| hit distortion
G|-5-5-x-5-x-5-x-5-|-4-4-x-4-x-4--7--|-7----------| on D chord
D|-5-5-x-5-x-5-x-5-|-5-5-x-5-x-5--7--|-7----------|
A|-3-3---3---3---3-|-5-5---5---5--5--|-5----------|
E|-----------------|-3-3-------------|-----?\-----|

then riff 2,

then riff 1 1&3/4, cut out last measure,
		instead play a F power chord(distorted)

then riff 2 again, then rest, then:(distorted)
     G      B C     D
e||------------8x||-----------|-----------------|
B||--------------||-----------|-----------*-*-*-|
G||*--------4-5-*||-7---------|-----*-*-*-2-3-5-|  *=muted
D||*-5-5--5-4-5-*||-7---------|-*-*-2-3-5-------|
A||--5-5--5-2-3--||-5---------|-3-5-------------|
E||--3-3--3------||-----------|-----------------|

then:(distorted)
     C      A#   G              G
e||----------------|----------------||7 1/2x
B||----------------|------------12\-||
G||*-5--5-5-3--3---|------------12\*||
D||*-5--5-5-3--3-5-|-(5)--------12\*||
A||--3--3-3-1--1-5-|-(5)--------10\-||
E||--------------3-|-(3)------------||


e|-----3--------------|--------------3-|-------5/6--|
B|-3^5----5^3---------|--------------3-|-------5/6--|
G|------------4--54---|--(distorted)-4-|------------|
D|-----------------75-|----------------|----clean---|
A|-(clean)------------|-----3-2-0------|------------|
E|--------------------|-----------3----|------------|


================================================================


Artist: Reel Big Fish
Song: Join The Club
Album: Turn the Radio Off

Join the Club by Reel Big Fish
Tabbed by Vulgar101.com


     A           C#             D           E
E||--------------------------|--------------------------|
B||--------------------5-----|--------7-----9h-10--9----|
G||--------6--------------6--|-----------7--9-----------|
D||-----------7-----6--------|-----7--------9-----------|
A||-----7--------4-----------|--5-----------7-----------|
E||--5-----------------------|--------------------------|


A             C#             D           E         A            C#
--------------------------|--------------0--------|--------------------------|
--------------------5-----|--------7-----0--------|--------------------5-----|
--------6--------------6--|-----------7--1--------|--------6--------------6--|
-----------7-----6--------|-----7--------2--------|-----------7-----6--------|
-----7--------4-----------|--5-----------2--------|-----7--------4-----------|
--5-----------------------|--------------0--------|--5-----------------------|


D             E            A             C#            D            E
--------------------------|--------------------------|--------------0--------|
--------7-----9h-10--9----|--------------------5-----|--------7-----0--------|
-----------7--9-----------|--------6--------------6--|-----------7--1--------|
-----7--------9-----------|-----------7-----6--------|-----7--------2--------|
--5-----------7-----------|-----7--------4-----------|--5-----------2--------|
--------------------------|--5-----------------------|--------------0--------|


A             C#             D           E
--------------------------|--------------------------|
--------------------5-----|--------7-----9h-10--9----|
--------6--------------6--|-----------7--9-----------|
-----------7-----6--------|-----7--------9-----------|
-----7--------4-----------|--5-----------7-----------|
--5-----------------------|--------------------------|


A             C#             D           E
--------------------------|--------------0--------|
--------------------5-----|--------7-----0--------|
--------6--------------6--|-----------7--1--------|
-----------7-----6--------|-----7--------2--------|
-----7--------4-----------|--5-----------2--------|
--5-----------------------|--------------0--------|

Horns Enter

-------------------|------|
-------------------|------|
-------------------|------|
-------------------|------|
-------------------|------|
--------------7----|--5---|

PALM MUTE                                         Light Ska
                                                       A
------------------------------|-----5-5---5----5-5---5-|
------------------------------|-----5-5---5----5-5---5-|
------------------------------|-----6-6---6----6-6---6-|
------------------------------|------------------------|
--7--7--7--7----7--7--7--7----|------------------------|
------------------------------|------------------------|


D                        A                        D
-----5-5---5----5-5---5-|-----5-5---5----5-5---5-|-----5-5---5----5-5---5-|
-----7-7---7----7-7---7-|-----5-5---5----5-5---5-|-----7-7---7----7-7---7-|
-----7-7---7----7-7---7-|-----6-6---6----6-6---6-|-----7-7---7----7-7---7-|
------------------------|------------------------|------------------------|
------------------------|------------------------|------------------------|
------------------------|------------------------|------------------------|


A                        D                        A
-----5-5---5----5-5---5-|-----5-5---5----5-5---5-|-----5-5---5----5-5---5-|
-----5-5---5----5-5---5-|-----7-7---7----7-7---7-|-----5-5---5----5-5---5-|
-----6-6---6----6-6---6-|-----7-7---7----7-7---7-|-----6-6---6----6-6---6-|
------------------------|------------------------|------------------------|
------------------------|------------------------|------------------------|
------------------------|------------------------|------------------------|

                   Double Time Ska
D                   A        C#   D        E
--5-----|--5--5-5-4--4-5--5-5-5-7-7-7-7-|
--7-----|--5--5-5-5--5-7--7-7-7-9-9-9-9-|
--7-----|--6--6-6-6--6-7--7-7-7-9-9-9-9-|
--------|--7--7-7-6--6-7--7-7-7-9-9-9-9-|
--------|--7--7-7-4--4-5--5-5-5-7-7-7-7-|
--------|--5--5-5-----------------------|

                               Horns
A        C#   D        E        A        C#   D        E
--5--5-5-4--4-5--5-5-5-7-7-7-7-|--5--5-5-4--4-5--5-5-5-7-7-7-7-|
--5--5-5-5--5-7--7-7-7-9-9-9-9-|--5--5-5-5--5-7--7-7-7-9-9-9-9-|
--6--6-6-6--6-7--7-7-7-9-9-9-9-|--6--6-6-6--6-7--7-7-7-9-9-9-9-|
--7--7-7-6--6-7--7-7-7-9-9-9-9-|--7--7-7-6--6-7--7-7-7-9-9-9-9-|
--7--7-7-4--4-5--5-5-5-7-7-7-7-|--7--7-7-4--4-5--5-5-5-7-7-7-7-|
--5--5-5-----------------------|--5--5-5-----------------------|


A        C#   D        E        A        C#   D        E
--5--5-5-4--4-5--5-5-5-7-7-7-7-|--5--5-5-4--4-5--5-5-5-7-7-7-7-|
--5--5-5-5--5-7--7-7-7-9-9-9-9-|--5--5-5-5--5-7--7-7-7-9-9-9-9-|
--6--6-6-6--6-7--7-7-7-9-9-9-9-|--6--6-6-6--6-7--7-7-7-9-9-9-9-|
--7--7-7-6--6-7--7-7-7-9-9-9-9-|--7--7-7-6--6-7--7-7-7-9-9-9-9-|
--7--7-7-4--4-5--5-5-5-7-7-7-7-|--7--7-7-4--4-5--5-5-5-7-7-7-7-|
--5--5-5-----------------------|--5--5-5-----------------------|


                                Verse 1
A        C#   D        E        A      C#    D       E
--5--5-5-4--4-5--5-5-5-7-7-7-7-|--5-5--4--4--5--5--5-7-7-7-7-|
--5--5-5-5--5-7--7-7-7-9-9-9-9-|--5-5--5--5--7--7--7-9-9-9-9-|
--6--6-6-6--6-7--7-7-7-9-9-9-9-|--6-6--6--6--7--7--7-9-9-9-9-|
--7--7-7-6--6-7--7-7-7-9-9-9-9-|-----------------------------|
--7--7-7-4--4-5--5-5-5-7-7-7-7-|-----------------------------|
--5--5-5-----------------------|-----------------------------|


A      C#    D       E        A      C#    D       E
--5-5--4--4--5--5--5-7-7-7-7-|--5-5--4--4--5--5--5-7-7-7-7-|
--5-5--5--5--7--7--7-9-9-9-9-|--5-5--5--5--7--7--7-9-9-9-9-|
--6-6--6--6--7--7--7-9-9-9-9-|--6-6--6--6--7--7--7-9-9-9-9-|
-----------------------------|-----------------------------|
-----------------------------|-----------------------------|
-----------------------------|-----------------------------|


A      C#    D       E          A    C#   D    E       A    C#   D    E
--5-5--4--4--5--5--5-7-7-7-7-|----------------------|----------------------|
--5-5--5--5--7--7--7-9-9-9-9-|----------------------|----------------------|
--6-6--6--6--7--7--7-9-9-9-9-|-------6----7----9----|-------6----7----9----|
-----------------------------|--7----6----7----9----|--7----6----7----9----|
-----------------------------|--7----4----5----7----|--7----4----5----7----|
-----------------------------|--5-------------------|--5-------------------|


  A    C#   D    E     A        C#   D        E
----------------------|--5--5-5-4--4-5--5-5-5-7-7-7-7-|
----------------------|--5--5-5-5--5-7--7-7-7-9-9-9-9-|
-------6----7----9----|--6--6-6-6--6-7--7-7-7-9-9-9-9-|
--7----6----7----9----|--7--7-7-6--6-7--7-7-7-9-9-9-9-|
--7----4----5----7----|--7--7-7-4--4-5--5-5-5-7-7-7-7-|
--5-------------------|--5--5-5-----------------------|

Horns
A        C#   D        E        A        C#   D        E
--5--5-5-4--4-5--5-5-5-7-7-7-7-|--5--5-5-4--4-5--5-5-5-7-7-7-7-|
--5--5-5-5--5-7--7-7-7-9-9-9-9-|--5--5-5-5--5-7--7-7-7-9-9-9-9-|
--6--6-6-6--6-7--7-7-7-9-9-9-9-|--6--6-6-6--6-7--7-7-7-9-9-9-9-|
--7--7-7-6--6-7--7-7-7-9-9-9-9-|--7--7-7-6--6-7--7-7-7-9-9-9-9-|
--7--7-7-4--4-5--5-5-5-7-7-7-7-|--7--7-7-4--4-5--5-5-5-7-7-7-7-|
--5--5-5-----------------------|--5--5-5-----------------------|


A        C#   D        E        A        C#   D        E
--5--5-5-4--4-5--5-5-5-7-7-7-7-|--5--5-5-4--4-5--5-5-5-7-7-7-7-|
--5--5-5-5--5-7--7-7-7-9-9-9-9-|--5--5-5-5--5-7--7-7-7-9-9-9-9-|
--6--6-6-6--6-7--7-7-7-9-9-9-9-|--6--6-6-6--6-7--7-7-7-9-9-9-9-|
--7--7-7-6--6-7--7-7-7-9-9-9-9-|--7--7-7-6--6-7--7-7-7-9-9-9-9-|
--7--7-7-4--4-5--5-5-5-7-7-7-7-|--7--7-7-4--4-5--5-5-5-7-7-7-7-|
--5--5-5-----------------------|--5--5-5-----------------------|


Verse 2
A      C#    D       E        A      C#    D       E
--5-5--4--4--5--5--5-7-7-7-7-|--5-5--4--4--5--5--5-7-7-7-7-|
--5-5--5--5--7--7--7-9-9-9-9-|--5-5--5--5--7--7--7-9-9-9-9-|
--6-6--6--6--7--7--7-9-9-9-9-|--6-6--6--6--7--7--7-9-9-9-9-|
-----------------------------|-----------------------------|
-----------------------------|-----------------------------|
-----------------------------|-----------------------------|


A      C#    D       E        A      C#    D       E
--5-5--4--4--5--5--5-7-7-7-7-|--5-5--4--4--5--5--5-7-7-7-7-|
--5-5--5--5--7--7--7-9-9-9-9-|--5-5--5--5--7--7--7-9-9-9-9-|
--6-6--6--6--7--7--7-9-9-9-9-|--6-6--6--6--7--7--7-9-9-9-9-|
-----------------------------|-----------------------------|
-----------------------------|-----------------------------|
-----------------------------|-----------------------------|


A      C#   D    E     A      C#   D    E     A      C#   D    E
----------------------|----------------------|----------------------|
----------------------|----------------------|----------------------|
-------6----7----9----|-------6----7----9----|-------6----7----9----|
--7----6----7----9----|--7----6----7----9----|--7----6----7----9----|
--7----4----5----7----|--7----4----5----7----|--7----4----5----7----|
--5-------------------|--5-------------------|--5-------------------|


A      C#   D    E     B      C#   D    E     B      C#   D    E
----------------------|----------------------|----------------------|
----------------------|----------------------|----------------------|
--7----6----7----9----|--4----6----7----9----|--4----6----7----9----|
--7----6----7----9----|--4----6----7----9----|--4----6----7----9----|
--4----4----5----7----|--2----4----5----7----|--2----4----5----7----|


B          C#          D        E
--------------------|--------------------|------------------|
--------------------|--------------------|------------------|
--4--------6--------|--7--------9--------|------------------|
--4--------6--------|--7--------9--------|------------------|
--2--------4--------|--5--------7--------|------------------|
--------------------|--------------------|------------------|


LIGHT SKA
A                        D                        A
-----5-5---5----5-5---5-|-----5-5---5----5-5---5-|-----5-5---5----5-5---5-|
-----5-5---5----5-5---5-|-----7-7---7----7-7---7-|-----5-5---5----5-5---5-|
-----6-6---6----6-6---6-|-----7-7---7----7-7---7-|-----6-6---6----6-6---6-|
------------------------|------------------------|------------------------|
------------------------|------------------------|------------------------|
------------------------|------------------------|------------------------|


D                        A                        D
-----5-5---5----5-5---5-|-----5-5---5----5-5---5-|-----5-5---5----5-5---5-|
-----7-7---7----7-7---7-|-----5-5---5----5-5---5-|-----7-7---7----7-7---7-|
-----7-7---7----7-7---7-|-----6-6---6----6-6---6-|-----7-7---7----7-7---7-|
------------------------|------------------------|------------------------|
------------------------|------------------------|------------------------|
------------------------|------------------------|------------------------|

                                                 SAX SOLO
A                        D                        A
-----5-5---5----5-5---5-|-----5-5---5----5-5---5-|------5--------5----|
-----5-5---5----5-5---5-|-----7-7---7----7-7---7-|------5--------5----|
-----6-6---6----6-6---6-|-----7-7---7----7-7---7-|------6--------6----|
------------------------|------------------------|--------------------|
------------------------|------------------------|--------------------|
------------------------|------------------------|--------------------|


D                    A                    D
------5--------5----|------5--------5----|------5--------5----|
------7--------7----|------5--------5----|------7--------7----|
------7--------7----|------6--------6----|------7--------7----|
--------------------|--------------------|--------------------|
--------------------|--------------------|--------------------|
--------------------|--------------------|--------------------|


A                    D                    A
------5--------5----|------5--------5----|------5--------5----|
------5--------5----|------7--------7----|------5--------5----|
------6--------6----|------7--------7----|------6--------6----|
--------------------|--------------------|--------------------|
--------------------|--------------------|--------------------|
--------------------|--------------------|--------------------|


                    HORNS
D                    A                     D
------5--------5----|------5--5------5----|------5--5------5----|
------7--------7----|------5--5------5----|------7--7------7----|
------7--------7----|------6--6------6----|------7--7------7----|
--------------------|---------------------|---------------------|
--------------------|---------------------|---------------------|
--------------------|---------------------|---------------------|


A                     D                     A
------5--5------5----|------5--5------5----|------5--5------5----|
------5--5------5----|------7--7------7----|------5--5------5----|
------6--6------6----|------7--7------7----|------6--6------6----|
---------------------|---------------------|---------------------|
---------------------|---------------------|---------------------|
---------------------|---------------------|---------------------|


D                     A                     D
------5--5------5----|------5--5------5----|------5--5------5----|
------7--7------7----|------5--5------5----|------7--7------7----|
------7--7------7----|------6--6------6----|------7--7------7----|
---------------------|---------------------|---------------------|
---------------------|---------------------|---------------------|
---------------------|---------------------|---------------------|


A                        D                        A
-----5-5---5----5-5---5-|-----5-5---5----5-5---5-|-----5-5---5----5-5---5-|
-----5-5---5----5-5---5-|-----7-7---7----7-7---7-|-----5-5---5----5-5---5-|
-----6-6---6----6-6---6-|-----7-7---7----7-7---7-|-----6-6---6----6-6---6-|
------------------------|------------------------|------------------------|
------------------------|------------------------|------------------------|
------------------------|------------------------|------------------------|


D                        A                        D
-----5-5---5----5-5---5-|-----5-5---5----5-5---5-|--5----------------|
-----7-7---7----7-7---7-|-----5-5---5----5-5---5-|--7----------------|
-----7-7---7----7-7---7-|-----6-6---6----6-6---6-|--7----------------|
------------------------|------------------------|-------------------|
------------------------|------------------------|-------------------|
------------------------|------------------------|-------------------|


                   GUITAR SOLO
                   A       C#    D        E
|-------------------------------|
|-------------------------------|
|-------------------------------|
|--7~---------------------------|
|--0--0-0-4--4-5--5-5-5-7-7-7-7-|
|-------------------------------|


A       C#    D        E        A    C#    D      E
-------------------------------|-------------------|
-------------------------------|-------------------|
-------------------------------|-------------------|
--7~---------------------------|-------------------|
--0--0-0-4--4-5--5-5-5-7-7-7-7-|--7~---------------|
-------------------------------|-------------------|


A              C#               D                E
--------------------------------------------------|
--------------------------------------------------|
--13-14-14-13-13-14-14-13-13-14-14-13-13-14-14-13-|
--------------------------------------------------|
--------------------------------------------------|
--------------------------------------------------|


A              C#               D                E  A    C#     D     E
--16-17-17-16-16-17-17-16-16-17-17-16-16-17-17-16-|--------------------|
--------------------------------------------------|--17~---------------|
--------------------------------------------------|--------------------|
--------------------------------------------------|--------------------|
--------------------------------------------------|--------------------|
--------------------------------------------------|--------------------|


A      C#   D    E     A      C#   D    E     A      C#   D    E
--5----4----5----7----|--5----4----5----7----|--5----4----5----7----|
--5----5----7----9----|--5----5----7----9----|--5----5----7----9----|
--6----6----7----9----|--6----6----7----9----|--6----6----7----9----|
--7----6----7----9----|--7----6----7----9----|--7----6----7----9----|
--7----4----5----7----|--7----4----5----7----|--7----4----5----7----|
--5-------------------|--5-------------------|--5-------------------|

                                                        PALM MUTE
A      C#   D    E     A                   A            E
--5----4----5----7----|--5----------------|--5--------------------|
--5----5----7----9----|--5----------------|--5--------------------|
--6----6----7----9----|--6----------------|--6----------9-9---9-9-|
--7----6----7----9----|--7----------------|--7----------9-9---9-9-|
--7----4----5----7----|--7----------------|--7----------7-7---7-7-|
--5-------------------|--5----------------|--5--------------------|


A                   A
--5----------------|--5----------------||
--5----------------|--5----------------||
--6----------------|--6----------------||
--7----------------|--7----------------||
--7----------------|--7----------------||
--5----------------|--5----------------||


============================================================================


Artist: Reel Big Fish
Song: She Has A Girlfriend Now
Album: Turn the Radio Off


Horn part during intro:
e|--------------||-------------------|
B|--------------||-------------------|
G|*--8---5--8---||-5----------------*|
D|*----8--------||---8~---5-5-------*|
A|--------------||------6-----8--6---|
E|--------------||-------------------|

intro and riff x:(clean)
   D#             G#   A#
e|--------------|-------------|
B|--------------|-------------|
G|-8--8---5-8---|-5-5--7-7----|
D|-8----8-------|-6-6--8-8----|
A|-6------------|-6-6--8-8----|
E|--------------|-4-4--6-6----|


main riff A:
     D#        Cm        G#    A#
e||--6-6-x-6-x-3-x-3-|-x-4-x-4/6-6-x-6--||
B||--8-8-x-8-x-4-x-4-|-x-4-x-4/6-6-x-6--||
G||*-8-8-x-8-x-5-x-5-|-x-5-x-5/7-7-x-7-*||
D||*-8-8-x-8-x-5-x-5-|-x-6-x-6/8-8-x-8-*||
A||--6-6-x-6-x-3-x-3-|-x-6-x-6/8-8-x-8--||
E||------------------|------------------||
main riff B:
     D#        Cm          G#    A#
e||--6-6-x-6-x-8--x-8--|-x-4-x-4/6-6-x-6--||
B||--8-8-x-8-x-8--x-8--|-x-4-x-4/6-6-x-6--||
G||*-8-8-x-8-x-8--x-8--|-x-5-x-5/7-7-x-7-*||
D||*-8-8-x-8-x-10-x-10-|-x-6-x-6/8-8-x-8-*||
A||--6-6---6-----------|-x-6-x-6/8-8-x-8--||
E||--------------------|------------------||

after intro, play main riff A 4x
then verse, play main riff B 3x, then riff x
next verse, play main riff A 4x,
for chorus, play main riff A 3x, then
riff y:
   G#  A#
e|---------------|
B|---------------|
G|-4---7-7--7-7--|
D|-6---8-8--8-8--|
A|-6---8-8--8-8--|
E|-4---6-6--6-6--|
main riff A 3x, then riff x,
then main riff A again 4x,
for trombone solo, play main riff B 4x,
then play main riff A 3x, then riff y,
main riff A 3x, riff x
double-time:
     D#                Cm                G#                A#              3x
e||------------------|-----------------|-----------------|------------------||
B||--8-8-x-8-x-8-x-8-|-x-4-x-4-x-4-x-4-|-4-4-x-4-x-4-x-4/|-6-6-x-6-x-6-x-6--||
G||*-8-8-x-8-x-8-x-8-|-x-5-x-5-x-5-x-5-|-5-5-x-5-x-5-x-5/|-7-7-x-7-x-7-x-7-*||
D||*-8-8-x-8-x-8-x-8-|-x-5-x-5-x-5-x-5-|-6-6-x-6-x-6-x-6/|-8-8-x-8-x-8-x-8-*||
A||--6-6---6---6---6-|-x-3---3---3---3-|-6-6---6---6---6/|-8-8---8---8---8--||
E||------------------|-----------------|-----------------|------------------||
   D#                Cm                G#                A#  G#  A#
e|-6-6-x-6-x-6-x-6-|-3-3-x-3-x-3-x-3-|-4-4-x-4-x-4-x-4-|--------------|
B|-8-8-x-8-x-8-x-8-|-4-4-x-4-x-4-x-4-|-4-4-x-4-x-4-x-4-|-(distorted)--|
G|-8-8-x-8-x-8-x-8-|-5-5-x-5-x-5-x-5-|-5-5-x-5-x-5-x-5-|--------------|
D|-8-8-x-8-x-8-x-8-|-5-5-x-5-x-5-x-5-|-6-6-x-6-x-6-x-6-|-8---6---8----|
A|-6-6---6---6---6-|-3-3---3---3---3-|-6-6---6---6---6-|-8---6---8----|
E|-----------------|-----------------|-----------------|-6---4---6----|
     D#    Cm G#         A# G# A#    D#    Cm A#
e||---------------|-------------7x||--------------|-------------------|
B||---------------|---------------||--------------|-------------------|
G||*-8-8-\-5------|--------------*||-8-8-\-5------|-------------------|
D||*-8-8-\-5--6---|-(6)--8--6--8-*||-8-8-\-5--6---|-(6)---------------|
A||--6-6-\-3--6---|-(6)--8--6--8--||-6-6-\-3--6---|-(6)---------------|
E||-----------4---|-(4)--6--4--6--||----------4---|-(4)---------------|
notes: As you see, the main riff, which is played thru most of the song, is
played 2 different ways.  Aaron plays riff A throughout the whole
song in a live video I have. Just thought u should know.  So play
play whatever ya want, enjoy!

============================================================================


Artist: Reel Big Fish
Song: Snoop Dog, Baby
Album: Turn the Radio Off


intro:
C B A
e|------|------------|------------|------------|---------------|
B|------|------------|------------|------------|---------------|
G|------|------------|------------|------------|---------------|
D|------|-5--------5-|-4--------4-|-2----------|-(2)---****----|
A|------|-3~~~~~---3-|-2~~~~~---2-|-0----------|-(0)---02320---|
E|-/?--|------------|------------|------------|----------------|

riff 1:
G D C / D
e||--x-3-x-3-x-3-x---|-------------------4x---|
B||--x-3-x-3-x-3-x-7|(5)-5-x-5-x-5/(7)-7------| 4th time w/o last measure
G||*-x-4-x-4-x-4-x-7|(5)-5-x-5-x-5/(7)-7-*----| except first note(the slide)
D||*-x-5-x-5-x-5-x-7|(5)-5-x-5-x-5/(7)-7-*----|
A||---(5)-(5)-(5)--5|(3)-3-x-3-x-3/(5)-5------|
E||---(3)-(3)-(3)----|------------------------|

verse: riff 1 4x

chorus: riff 1 2x, then a C chord, then

interlude:
D Em G D Em G
e|-------------------|--------------------------|------------------|-----3------|
B|-----7--------8----|-12----12----12^13^12-----|-7-----7------8---|-3------3---|
G|------(7)------(9)-|-12-12----12---------12---|---7------------9-|-4--4-----4-|
D|---7--------9------|-12--------------------12-|-----7------9-----|-5--5-------|
A|-5--------7--------|-10-----------------------|----------7-------|-5--5-------|
E|-------------------|--------------------------|------------------|-3----------|

then riff x:
C B A
e|-------------|--------------|
B|-------------|--------------|
G|-------------|--------------|
D|-5---5-4---4-|-2------****--|
A|-3~--3-2~--2-|-0------02320-|
E|-------------|--------------|

then riff 1 8x, then a c chord,

then interlude,

then riff x, then:

G A C B G A C
e|-3--5--------|-3--5-----------|
B|-3--5--5---4-|-3--5--5--------| clean then distorted at the r.h. muted
G|-4--6--5---4-|-4--6--5-xxxxxx-| part (the x's)
D|-5--7--5---4-|-5--7--5-xxxxxx-|
A|-5--7--3---2-|-5--7--3-xxxxxx-|
E|-3--5--------|-3--5-----------|

G A C
e||---------------||
B||---------------|| distorted, played under the following
G||*-------5---4-*|| lead guitar part, except during the chords.
D||*-5--7--5---4-*||
A||--5--7--3---2--|| (lead guitar not in time, broken into phrases,
E||--3--5---------|| listen to cd for timing.)

e|---------------------7--------|-----------------|-12-10-12-101210~----|
B|---7^8-8-8-7^8-8-10----10-8~-|--8-7-8^7-8^7----|----------------------|
G|------------------------------|--------------7~-|---------------------|
D|------------------------------|-----------------|---------------------|
A|------------------------------|-----------------|---------------------|
E|------------------------------|-----------------|---------------------|

e|-8-7-8-787~--78~|----3-3---8888888-|---------------------|----------|
B|----------------|-7--3-3---8888888-|---7-8-10-8-7^8------|----------|
G|----------------|-7--4-4-9-9999999-|/7--------------7~~--|--riff-x--|
D|----------------|-7--5-5-10--------|---------------------|----------|
A|----------------|-5--5-5-10--------|------------------x-|-----------|
E|----------------|----3-3-8---------|------------------x-|-----------|

during sax solo, play riff 1 4x

then chorus:play riff 1 4x, then a C chord

then interlude,

then riff x w/

e|-------------|------------|-x-3----||
B|-5~--5-3~--3-|-2~---------|-x-3----||
G|-------------|------------|-x-4----||
D|-------------|------****--|-x-5----||
A|-------------|------02320-|--------||
E|-------------|------------|--------||


============================================================================


Artist: Reel Big Fish
Song: Beer
Album: Turn the Radio Off


Tabbed By: Simon Mooney (skanking_in_unity@hotmail.com) aka anewhope

First off, I have yet to see a good tab for this song, or for any other Reel Big Fish
tabs on the net for that matter, so I decided to do this one myself!

The verses and chorus shouldnt present too much difficulty, infact it's a pretty easy
song all round.

Intro (Clean):

e |-5-5--5--5--5-|-1-1--1--1--1-|-0-0--0--0--0-|-3-3--3--3--3-|
b |-5-5--5--5--5-|-1-1--1--1--1-|-1-1--1--1--1-|-3-3--3--3--3-|
g |-5-5--5--5--5-|-2-2--2--2--2-|-0-0--0--0--0-|-4-4--4--4--4-|
d |-7-7--7--7--7-|-3-3--3--3--3-|-2-2--2--2--2-|-5-5--5--5--5-|
a |--------------|--------------|--------------|--------------|
E |--------------|--------------|--------------|--------------|

First Solo (Distorted):

e |-------------------------------10---12---12---10---------10--|
b |-10---10---10---10---/10---13----------------------13--------|
g |-------------------------------------------------------------|
d |-------------------------------------------------------------|
a |-------------------------------------------------------------|
E |-------------------------------------------------------------|

e |--------------------------|---------------------|----------------------|
b |-10p8---------------------|---------------------|----------------------|
g |------9-7--5--7--5-----5--|-(5)--------5-7-b(9)-|-(9)----7p5--7-(7)----|
d |--------------------7-----|--------5-7----------|------------------7-5-|
a |--------------------------|------7--------------|----------------------|
E |--------------------------|---------------------|----------------------|

Verse (Clean with ska strumming):

e |-5-5--5--5--5-|-1-1--1--1--1-|-0-0--0--0--0-|-3-3--3--3--3-|
b |-5-5--5--5--5-|-1-1--1--1--1-|-1-1--1--1--1-|-3-3--3--3--3-|
g |-5-5--5--5--5-|-2-2--2--2--2-|-0-0--0--0--0-|-4-4--4--4--4-|
d |-7-7--7--7--7-|-3-3--3--3--3-|-2-2--2--2--2-|-5-5--5--5--5-|
a |--------------|--------------|--------------|--------------|
E |--------------|--------------|--------------|--------------|

She called me late last night, to say she loved me so
Didn't matter anymore
I say she never cared and that she never will
Do it all again, I guess 'll have to wait till then

Chorus (Distorted):
Play four times

e |---------|---------|----------|---------|---------|----------|
b |---------|---------|----------|---------|---------|----------|
g |-5-5-5-5-|---------|----------|-5-5-5-5-|---------|----------|
d |-5-5-5-5-|-5-5-5-5-|--3-3-3-3-|-5-5-5-5-|-5-5-5-5-|-5-5-5-5--|
a |-3-3-3-3-|-5-5-5-5-|--3-3-3-3-|-3-3-3-3-|-5-5-5-5-|-5-5-5-5--|
E |---------|-3-3-3-3-|--1-1-1-1-|---------|-3-3-3-3-|-3-3-3-3--|

Solo:

e |-------------------------------10---12---12---10---------10--|
b |-10---10---10---10---/10---13----------------------13--------|
g |-------------------------------------------------------------|
d |-------------------------------------------------------------|
a |-------------------------------------------------------------|
E |-------------------------------------------------------------|

e |--------------------------|---------------------|----------------------|
b |-10p8---------------------|---------------------|----------------------|
g |------9-7--5--7--5-----5--|-(5)--------5-7-b(9)-|-(9)----7p5--7-(7)----|
d |--------------------7-----|--------5-7----------|------------------7-5-|
a |--------------------------|------7--------------|----------------------|
E |--------------------------|---------------------|----------------------|

Verse 2


e |-5-5--5--5--5-|-1-1--1--1--1-|-0-0--0--0--0-|-3-3--3--3--3-|
b |-5-5--5--5--5-|-1-1--1--1--1-|-1-1--1--1--1-|-3-3--3--3--3-|
g |-5-5--5--5--5-|-2-2--2--2--2-|-0-0--0--0--0-|-4-4--4--4--4-|
d |-7-7--7--7--7-|-3-3--3--3--3-|-2-2--2--2--2-|-5-5--5--5--5-|
a |--------------|--------------|--------------|--------------|
E |--------------|--------------|--------------|--------------|

She called me late last night to say she loved me, so..
But I guess she changed her mind
Well, I should have known it wouldn't be alright
But I can't live without her, so I won't even try..

Chorus (Distorted):
Play four times

e |---------|---------|----------|---------|---------|----------|
b |---------|---------|----------|---------|---------|----------|
g |-5-5-5-5-|---------|----------|-5-5-5-5-|---------|----------|
d |-5-5-5-5-|-5-5-5-5-|--3-3-3-3-|-5-5-5-5-|-5-5-5-5-|-5-5-5-5--|
a |-3-3-3-3-|-5-5-5-5-|--3-3-3-3-|-3-3-3-3-|-5-5-5-5-|-5-5-5-5--|
E |---------|-3-3-3-3-|--1-1-1-1-|---------|-3-3-3-3-|-3-3-3-3--|

Solo:

e |----------------------------------------------------------------------|
b |-/10----10----10p8---8------------------------------------------------|
g |-------------------9-----9-8--7--5----------5-7b(8)--r(7)-5-----------|
d |------------------------------------7--(7)------------------7--(7)----|
a |----------------------------------------------------------------------|
E |----------------------------------------------------------------------|

e |--------------------------------------------|
b |--------------------------------------------|
g |-----------/9--9--7-5-----------------------|
d |-------7---------------7--(7)--5/7--7--7--7-|
a |--------------------------------------------|
E |--5--5-------------------------3/5--5--5--5-|

e |--------------------------17-17-17-17-17-20-20-20-20-20-22-22-22-22-22-|
b |--------------------------17-17-17-17-17-20-20-20-20-20-22-22-22-22-22-|
g |-19b(21)--19-17--------------------------------------------------------|
d |----------------19--(19)-----------------------------------------------|
a |-----------------------------------------------------------------------|
E |-----------------------------------------------------------------------|

Bridge (Clean):
Half Time Feel

e |--5--5--1--1--0----0----5--5--1--1-|
b |--5--5--1--1--1----1----5--5--1--1-|
g |--5--5--2--2--0----0----5--5--2--2-|
d |-----------------------------------|
a |-----------------------------------|
E |-----------------------------------|

Lead Guitar:

e |-----------------------|
b |-----------------------|
g |-7b--(7.5)--7p5--------|
d |-7b--(7.5)-------7--\--|
a |-----------------------|
E |-----------------------|

Bridge Cont (Clean):
Play 3 times

e |-0----0---5--5--1--1---0----0----3-X---3-X--|
b |-1----1---5--5--1--1---1----1----3-X---3-X--|
g |-0----0---5--5--2--2---0----0----4-X---3-X--|
d |--------------------------------------------|
a |--------------------------------------------|
E |--------------------------------------------|

Lead Cont:

e |----------------|
b |----------------|
g |---------5-7-5--|
d |-----5-7--------|
a |-5-7------------|
E |----------------|

maybe some day, I'll think of what to say
maybe next time I'll remember what to do,
she looks like heaven, maybe this is hell,
said she'd do it all again, she'd promise not to tell

Double time feel...

e |-5--5--1--1-------------------------|
b |-5--5--1--1-------------------------|
g |-5--5--2--2-5-5-5-5-----------------|
d |------------5-5-5-5-5-5-5-5-5-5-5-5-|
a |------------3-3-3-3-5-5-5-5-5-5-5-5-|
E |--------------------3-3-3-3-3-3-3-3-|

If I get drunk well, I'll pass out on the floor now baby
you won't bother me no more (and she said)
It's okay boy cause you know we'll be good friends and I say,
I think I'll have myself a beer.

Outtro

e |------------------------------------|
b |------------------------------------|
g |-------------------5-5-5-5----------|
d |-7-7-7-7--3-3-3-3--5-5-5-5--5-5-5-5-|
a |-7-7-7-7--3-3-3-3--3-3-3-3--5-5-5-5-|
E |-5-5-5-5--1-1-1-1-----------3-3-3-3-|

Outro Solo


e |-------------------------------10---12---12---10---------10--|
b |-10---10---10---10---/10---13----------------------13--------|
g |-------------------------------------------------------------|
d |-------------------------------------------------------------|
a |-------------------------------------------------------------|
E |-------------------------------------------------------------|

e |--------------------------|---------------------|----------------------|
b |-10p8---------------------|---------------------|----------------------|
g |------9-7--5--7--5-----5--|-(5)--------5-7-b(9)-|-(9)----7p5--7-(7)----|
d |--------------------7-----|--------5-7----------|------------------7-5-|
a |--------------------------|------7--------------|----------------------|
E |--------------------------|---------------------|----------------------|

e |------------------------------------------------------------------------|
b |------------------------------------------------------------------------|
g |-14-14--14--14--14--10-10--10--10--10--5-5--5--5--5--12-12--12--12--12-*|
d |--x--x---x---x---x---x--x---x---x---x--x-x--x--x--x---x--x---x---x---x-*|
a |-12-12--12--12--12---8--8---8---8---8--3-3--3--3--3--10-10--10--10--10--|
E |------------------------------------------------------------------------|

End on:

e |-5-|
b |-5-|
g |-5-|
d |-7-|
a |---|
E |---|


============================================================================


Artist: Reel Big Fish
Song: 241
Album: Turn the Radio Off


riff 1:(clean)
   B                 D                 E                 F#
e|-7-7-x-7-x-7-x-7-|-x-5-x-5-x-5-x-5/|/7-7-x-7-x-7-x-7-|-x-9--x-9--x-9--x-9--|
B|-7-7-x-7-x-7-x-7-|-x-7-x-7-x-7-x-7/|/9-9-x-9-x-9-x-9-|-x-11-x-11-x-11-x-11-|
G|-8-8-x-8-x-8-x-8-|-x-7-x-7-x-7-x-7/|/9-9-x-9-x-9-x-9-|-x-11-x-11-x-11-x-11-|
D|-9-9-x-9-x-9-x-9-|-x-7-x-7-x-7-x-7/|/9-9-x-9-x-9-x-9-|-x-11-x-11-x-11-x-11-|
A|-9-9---9---9---9-|---5---5---5---5/|/7-7---7---7---7-|---9----9----9----9--|
E|-----------------|-----------------|-----------------|---------------------|

riff 2:(clean)
   B                 D                 E                 G          F#
e|-7-7-x-7-x-7-x-7-|-x-5-x-5-x-5-x-5/|/7-7-x-7-x-7-x-7/|/10-10-x-10\9--9-x-9--|
B|-7-7-x-7-x-7-x-7-|-x-7-x-7-x-7-x-7/|/9-9-x-9-x-9-x-9/|/12-12-x-12\11-11x-11-|
G|-8-8-x-8-x-8-x-8-|-x-7-x-7-x-7-x-7/|/9-9-x-9-x-9-x-9/|/12-12-x-12\11-11x-11-|
D|-9-9-x-9-x-9-x-9-|-x-7-x-7-x-7-x-7/|/9-9-x-9-x-9-x-9/|/12-12-x-12\11-11x-11-|
A|-9-9---9---9---9-|---5---5---5---5/|/7-7---7---7---7/|/10-10---10\9--9---9--|
E|-----------------|-----------------|-----------------|----------------------|

riff 3:(clean)
   Em                B                 C                      B
e|-7-7-x-7-x-7-x-7-|-x-7-x-7-x-7-x-7/|-8--8--x-8--x-8--x-8-\|-7-7-x-7-x-7-x-7-|
B|-8-8-x-8-x-8-x-8-|-x-7-x-7-x-7-x-7/|-8--8--x-8--x-8--x-8-\|-7-7-x-7-x-7-x-7-|
G|-9-9-x-9-x-9-x-9-|-x-8-x-8-x-8-x-8/|-9--9--x-9--x-9--x-9-\|-8-8-x-8-x-8-x-8-|
D|-9-9-x-9-x-9-x-9-|-x-9-x-9-x-9-x-9/|-10-10-x-10-x-10-x-10\|-9-9-x-9-x-9-x-9-|
A|-7-7---7---7---7-|---9---9---9---9/|-10-10---10---10---10\|-9-9---9---9---9-|
E|-----------------|-----------------|----------------------|-----------------|
   Em                B                 C                      D
e|-7-7-x-7-x-7-x-7-|-x-7-x-7-x-7-x-7/|-8--8--x-8--x-8--x-8--|-5-5-x-5-x-5-x-5-|
B|-8-8-x-8-x-8-x-8-|-x-7-x-7-x-7-x-7/|-8--8--x-8--x-8--x-8--|-7-7-x-7-x-7-x-7-|
G|-9-9-x-9-x-9-x-9-|-x-8-x-8-x-8-x-8/|-9--9--x-9--x-9--x-9--|-7-7-x-7-x-7-x-7-|
D|-9-9-x-9-x-9-x-9-|-x-9-x-9-x-9-x-9/|-10-10-x-10-x-10-x-10-|-7-7-x-7-x-7-x-7-|
A|-7-7---7---7---7-|---9---9---9---9/|-10-10---10---10---10-|-5-5---5---5---5-|
E|-----------------|-----------------|----------------------|-----------------|

riff 4:(distorted)
   A       C       A
e|---------------------------|
B|-----------------------r---|
G|---------5-5-----------e---|
D|-7-7-----5-5-----7-7---s---|
A|-7-7-----3-3-----7-7---t---|
E|-5-5-------------5-5-------|

ORDER:
	Riff 1 2x
	Riff 2 2x
	Riff 3 1x
      Riff 4 1x
      Riff 1 2x
	Riff 2 2x
	Riff 3 1x
	Riff 4 1x
	Riff 1 6x

e|------------------|
B|------------------|
G|/11--9--7--6--4---|
D|--------------4---|
A|/(9)(7)(5)(4)-2---|
E|------------------|


============================================================================


Artist: Reel Big Fish
Song: Everything Sucks
Album: Turn the Radio Off


intro:2x
   F                                   C
e|-1-1-x-1-x-1-x-1-|-x-1-x-1-x-1-x-1-|-----------------|-----------------|
B|-1-1-x-1-x-1-x-1-|-x-1-x-1-x-1-x-1-|-5-5-x-5-x-5-x-5-|-x-5-x-5-x-5-x-5-|
G|-2-2-x-2-x-2-x-2-|-x-2-x-2-x-2-x-2-|-5-5-x-5-x-5-x-5-|-x-5-x-5-x-5-x-5-|
D|-3-3-x-3-x-3-x-3-|-x-3-x-3-x-3-x-3-|-5-5-x-5-x-5-x-5-|-x-5-x-5-x-5-x-5-|
A|-3-3-------------|-----------------|-3-3-x-3-x-3-x-3-|-x-3-x-3-x-3-x-3-|
E|-1-1-------------|-----------------|-----------------|-----------------|

then: 3x
   F       A   A#      C
e|---------5---6--6-6--8--8--|
B|-10------5-x-6--6-6--8--8--|
G|-10--x-x-6-x-7--7-7--9--9--|
D|-10--x-x-7-x-8--8-8--10-10-|   then a C chord on A string/3rd fret
A|-8---x-x-7-x-8--8-8--10-10-|
E|---------5---6--6-6--8--8--|

then:
      C     A#      A     G       C     A#
e|-------------|-------------|-------------|----------|---------|--------|
B|-r--5--r--3--|-r--2--r-----|-r--5--r--3--|----------|---------|--------|
G|-e--5--e--3--|-e--2--e--4--|-e--5--e--3--|--(distorted)-------|--------|
D|-s--5--s--3--|-s--2--s--5--|-s--5--s--3--|----------|---------|--------|
A|-t--3--t--1--|-t--0--t--5--|-t--3--t--1--|-33-1-0---|---------|--------|
E|-------------|----------3--|-------------|--------3-|-1-------|--------|

riff X:(clean)
   F                 A             A#  F                 A             C
e|-1-1-x-1-x-1-x-1-|-x-5-x-5-x-5-x-6-|-1-1-x-1-x-1-x-1-|-x-5-x-5-x-5-x---|
B|-1-1-x-1-x-1-x-1-|-x-5-x-5-x-5-x-6-|-1-1-x-1-x-1-x-1-|-x-5-x-5-x-5-x-5-|
G|-2-2-x-2-x-2-x-2-|-x-6-x-6-x-6-x-7-|-2-2-x-2-x-2-x-2-|-x-6-x-6-x-6-x-5-|
D|-3-3-x-3-x-3-x-3-|-x-7-x-7-x-7-x-8-|-3-3-x-3-x-3-x-3-|-x-7-x-7-x-7-x-5-|
A|-3-3-------------|-----------------|-3-3-------------|---------------3-|
E|-1-1-------------|-----------------|-1-1-------------|-----------------|
   F                 A             A#  A#                C       C
e|-1-1-x-1-x-1-x-1-|-x-5-x-5-x-5-x-6-|-----------------|-----------------|
B|-1-1-x-1-x-1-x-1-|-x-5-x-5-x-5-x-6-|-3---3---3---3---|-5---0---5---0---|
G|-2-2-x-2-x-2-x-2-|-x-6-x-6-x-6-x-7-|-3---3---3---3---|-5---0---5---0---|
D|-3-3-x-3-x-3-x-3-|-x-7-x-7-x-7-x-8-|-3---3---3---3---|-5---0---5---0---|
A|-3-3-------------|-----------------|-1---1---1---1---|-3---0---3---0---|
E|-1-1-------------|-----------------|-(distorted)-----|-----------------|

verse:(clean)
     F              G            A#   A#                F
e||--1-----1----|--3-x-3-x-3-----8x||-----------------|-1-1-x-1-x-1-x-1-|
B||--1-x-x-1--x-|--3-x-3-x-3-x-333-||-3-3-x-3-x-3-x-3-|-1-1-x-1-x-1-x-1-|
G||*-2-x-x-2--x-|--4-x-4-x-4-x-333*||-3-3-x-3-x-3-x-3-|-2-2-x-2-x-2-x-2-|
D||*-3-x-x-3--x-|--5-x-4-x-5-x-333*||-3-3-x-3-x-3-x-3-|-3-3-x-3-x-3-x-3-|
A||--3-x-x-3--x-|--5---------x-111-||-1-1-x-1-x-1-x-1-|-3-3-------------|
E||--1-----1----|--3---------------||-----------------|-1-1-------------|
   C                 F                 A#                F
e|-----------------|-1-1-x-1-x-1-x-1-|-----------------|-1-1-x-1-x-1-x-1-|
B|-5-5-x-5-x-5-x-5-|-1-1-x-1-x-1-x-2-|-3-3-x-3-x-3-x-3-|-1-1-x-1-x-1-x-1-|
G|-5-5-x-5-x-5-x-5-|-2-2-x-2-x-2-x-3-|-3-3-x-3-x-3-x-3-|-2-2-x-2-x-2-x-3-|
D|-5-5-x-5-x-5-x-5-|-3-3-x-3-x-3-x-3-|-3-3-x-3-x-3-x-3-|-3-3-x-3-x-3-x-3-|
A|-3-3-x-3-x-3-x-3-|-3-3-------------|-1-1-x-1-x-1-x-1-|-3-3-------------|
E|-----------------|-1-1-------------|-----------------|-1-1-------------|
   G       A#
e|-----------------|
B|-----------------|
G|-----4------(7)--|
D|-------5------(8)|
A|---5-------8-----|
E|-3------/6-------|

chorus:(distorted)
     F       A         A#      C         A#                C
e||------------------|--------------3x||-----------------|--------------|
B||------------------|----------------||-3---3---3---3---|-5------------|
G||*---------2---2---|-3---3---5---5-*||-3---3---3---3---|-5------------|
D||*-3---3---2---2---|-3---3---5---5-*||-3---3---3---3---|-5------------|
A||--3---3---0---0---|-1---1---3---3--||-1---1---1---1---|-3------------|
E||--1---1-----------|----------------||-----------------|--------------|

then play Riff X,BUT also add measures 3 & 4(F A C) of it before it.

then Verse,

then Chorus, then the following 2x(clean)
   Dm                                  G
e|-5-5-x-5-x-5-x-5-|-x-5-x-5-x-5-x-5-|-3-3-x-3-x-3-x-3-|-x-3-x-3-x-3-x-3-|
B|-6-6-x-6-x-6-x-6-|-x-6-x-6-x-6-x-6-|-3-3-x-3-x-3-x-3-|-x-3-x-3-x-3-x-3-|
G|-7-7-x-7-x-7-x-7-|-x-7-x-7-x-7-x-7-|-4-4-x-4-x-4-x-4-|-x-4-x-4-x-4-x-4-|
D|-7-7-x-7-x-7-x-7-|-x-7-x-7-x-7-x-7-|-5-5-x-5-x-5-x-5-|-x-5-x-5-x-5-x-5-|
A|-5-5-------------|-----------------|-5-5-------------|-----------------|
E|-----------------|-----------------|-3-3-------------|-----------------|

then,(distorted)
   A#                                  C
e|-----------------|-----------------|-----------------|-----------------|
B|-3---3---3---3---|-3---3---3---3---|-5---5---5---5---|-5---5---5---5---|
G|-3---3---3---3---|-3---3---3---3---|-5---5---5---5---|-5---5---5---5---|
D|-3---3---3---3---|-3---3---3---3---|-5---5---5---5---|-5---5---5---5---|
A|-1---1---1---1---|-1---1---1---1---|-3---3---3---3---|-3---3---3---3---|
E|-----------------|-----------------|-----------------|-----------------|


============================================================================


Artist: Reel Big Fish
SOng: S.R.
Album: Turn the Radio Off


Intro/Verse:
E|------------------|
B|-x-7-7--x-9/11-11-|
G|-x-8-8--x-9/11-11-|x8 for intro
D|-x-9-9--x-9/11-11-|x8 for first half of verse
A|-x-9-9--x-7--9--9-|
E|------------------|

After the first half of the verse theres just singing for 2 bars then theres

E|------------|
B|-7-7--9--11-|
G|-8-8--9--11-|
D|-9-9--9--11-|x3
A|-9-9--7---9-|
E|------------|

then just before the chorus:
E|------------------|
B|-x-7-7--x-9/11-11-|
G|-x-8-8--x-9/11-11-|
D|-x-9-9--x-9/11-11-|
A|-x-9-9--x-7--9--9-|
E|------------------|

Chorus:
E|--------------------|
B|--------------------|
G|-4-4----------------|
D|-4-4--4-4--2-2--4-4-|x2
A|-2-2--4-4--2-2--4-4-|
E|------2-2--0-0--2-2-|

E|-------------|
B|-------------|
G|-4-4---------|
D|-4-4--4-4--2-|
A|-2-2--4-4--2-|
E|------2-2--0-|

then rest for a bar and a bit, then do the first half of the verse once then this:
      pm---    ----------|
E|-----------------------|
B|-----------------------|
G|-----------------------|
D|-----------------------|
A|-/10--9-9-6--6-4-4-----|
E|-------------------7---|
     .  . .    . . .

============================================================================


Artist: Reel Big Fish
Song: Skatanic
Album: Turn the Radio Off


Key: Am

(starts with feedback, horns, then bass)

Intro:
Am
|-0-----------0-----|
|---1-------1-------|
|-----2---2---------|
|-------2-----------|
|-------------------|
|-------------------|

    Am        C    B
|-x-00-x-0--x-33-x-2----|
|-x-11-x-1--x-55-x-4----|
|-x-22-x-2--x-55-x-4----|
|-x-22-x-2--x-55-x-4----|  (x3)
|-x-00-x-0--x-33-x-2----|
|-x----x----x----x------|

    Am      C    B  (dist. on the power chords)
|-x-00-x-0--------------|
|-x-11-x-1--------------|
|-x-22-x-2--555--444----|
|-x-22-x-2--555--444----|
|-x-00-x-0--333--222----|
|-x----x----------------|

    Am        C    B
|-x-00-x-0--x-33-x-2----|
|-x-11-x-1--x-55-x-4----|
|-x-22-x-2--x-55-x-4----|
|-x-22-x-2--x-55-x-4----|  (x3)
|-x-00-x-0--x-33-x-2----|
|-x----x----x----x------|

    Am
|-x-00-x-0--x//---------|
|-x-11-x-1--x//---------|
|-x-22-x-2--x//---------|
|-x-22-x-2--x//---------|
|-x-00-x-0--x//---------|
|-x----x----x//---------|


Chorus: (acts as a preverse as well)
(w/dist.)
  Am     B C
|---------------------|
|---------------------|
|-2-222--4/5----------| (x3)
|-2-222--4/5--2-------|
|-0-000--2/3---321----|
|---------------------|

  Am     B C
|--------------x------|
|--------------x------|
|-2-222--4/5---x------|
|-2-222--4/5---x------|
|-0-000--2/3---x------|
|--------------x------|


Verse:
  Am                                         Cm        Bm
|-55x5x5x5-xx-55x5x5x5-xx-55x5x5x5-xx-55x5x5-8--8--8---7-7-7-|
|-55x5x5x5-xx-55x5x5x5-xx-55x5x5x5-xx-55x5x5-8--8--8---7-7-7-|
|-55x5x5x5-xx-55x5x5x5-xx-55x5x5x5-xx-55x5x5-10-8--8---7-7-7-|
|-77x7x7x7-xx-77x7x7x7-xx-77x7x7x7-xx-77x7x7-10-10-10--9-9-9-|
|-77x7x7x7-xx-77x7x7x7-xx-77x7x7x7-xx-77x7x7-10-10-10--9-9-9-|
|-55x5x5x5-xx-55x5x5x5-xx-55x5x5x5-xx-55x5x5-8--8--8---7-7-7-|

  Am                                         Cm    Bm
|-55x5x5x5-xx-55x5x5x5-xx-55x5x5x5-xx-55x5x5-8--8--7------x/-|
|-55x5x5x5-xx-55x5x5x5-xx-55x5x5x5-xx-55x5x5-8--8--7------x/-|
|-55x5x5x5-xx-55x5x5x5-xx-55x5x5x5-xx-55x5x5-10-8--7------x/-|
|-77x7x7x7-xx-77x7x7x7-xx-77x7x7x7-xx-77x7x7-10-10-9------x/-|
|-77x7x7x7-xx-77x7x7x7-xx-77x7x7x7-xx-77x7x7-10-10-9------x/-|
|-55x5x5x5-xx-55x5x5x5-xx-55x5x5x5-xx-55x5x5-8--8--7------x/-|

Breakdown:(w/dist.)
 Em  F   G   F       Em
|-----------------xx---xx---xx---xx-----|
|-----------------xx---xx---xx---xx-----|
|-----------------xx---xx---xx---xx-----|
|222/333/555333--xx-2-xx-2-xx-2-xx-2----| (x3)
|222/333/555333--xx-2-xx-2-xx-2-xx-2----|
|000/111/333111--xx-0-xx-0-xx-0-xx-0----|

 Em  F   G   F     Em
|---------------------------------------|
|---------------------------------------|
|---------------------------------------|
|222/333/555333---2--(let ring)---------|
|222/333/555333---2---------------------|
|000/111/333111---0---------------------|

(increase tempo gradually)
|-------------------------------------------------------------------------|
|-------------------------------------------------------------------------|
|-----------------------------------------------------13------------------|
|-2----3----4----5----6----7----8----9------10--------13---7777-1010-99-7-|
|--323--434--545--656--767--878--989--10910---111011--11---7777-1010-99-7-|
|----------------------------------------------------------5555-8-8--77-5-|


Ending:
|---------------|
|---------------|
|---------------|
|-2-0-----------|
|-----3-2-0-----|
|---------------|


============================================================================


Artist: Reel Big Fish
Song: All I Want Is More
Album: Turn the Radio Off


Intro:
note:the strummed arpeggiated chord is only used the first time round in the intro
   ^
E|-5-5-x-5--4-x-4--5-x-5--2/3-3-|
B|-5-5-x-5--5-x-5--7-x-7--2/3-3-|
G|-6-6-x-6--6-x-6--7-x-7--3/4-4-|
D|-7-7-x-7--6-x-6--7-x-7--4/5-5-|
A|------------------------------|
E|------------------------------|

E|-5-5-x-5--4-x-4--5-x-5--8-8-|
B|-5-5-x-5--5-x-5--7-x-7--8-8-|
G|-6-6-x-6--6-x-6--7-x-7--7-7-|
D|-7-7-x-7--6-x-6--7-x-7--6-6-|
A|----------------------------|
E|----------------------------|

do this next riff 3 times
E|-5-5-x-5--4-x-4--5-x-5\--2/3-3-|
B|-5-5-x-5--5-x-5--7-x-7\--2/3-3-|
G|-6-6-x-6--6-x-6--7-x-7\--3/4-4-|
D|-7-7-x-7--6-x-6--7-x-7\--4/5-5-|
A|-------------------------------|
E|-------------------------------|

then do this once
E|-5-5-x-5--4-x-4--5-x-5--8-8-|
B|-5-5-x-5--5-x-5--7-x-7--8-8-|
G|-6-6-x-6--6-x-6--7-x-7--7-7-|
D|-7-7-x-7--6-x-6--7-x-7--6-6-|
A|----------------------------|
E|----------------------------|

Pre-1st-Verse
E|------------------------------------------|
B|------------------------------------------|
G|-------------6--6-6-6-6--7--7-7-7-7-------|
D|-7--7-7-7-7--6--6-6-6-6--7--7-7-7-7--4--5-|x4
A|-7--7-7-7-7--4--4-4-4-4--5--5-5-5-5--4--5-|
E|-5--5-5-5-5--------------------------2--3-|

E|----------------------------------------|
B|----------------------------------------|
G|-------------6--6-6-6-6--7-6----7-6-----|
D|-7--7-7-7-7--6--6-6-6-6--7-6-7--7-6-7-2-|
A|-7--7-7-7-7--4--4-4-4-4--5-4-7--5-4-7-2-|
E|-5--5-5-5-5------------------5------5-0-|

Pre-Verse:
E|----------------|
B|-/5-5-5-5-3-2---|
G|--------------2-|
D|----------------|x2
A|----------------|
E|----------------|

E|---------------------------|
B|-/5-5-5-5-3-2--3-3-3-3-2-0-|
G|---------------------------|
D|---------------------------|
A|---------------------------|
E|---------------------------|

Verse:
 pm-----------------------------------|
E|------------------------------------|
B|------------------------------------|
G|------------------------------------|
D|------------------------------------|
A|-7-7-7-7-7-7-7-7--2-2-2-2-2-2-2-2---|
E|-5-5-5-5-5-5-5-5--0-0-0-0-0-0-0-0---|
   . . . . . . . .  . . . . . . . .

 pm-----------------------------------|
E|------------------------------------|
B|------------------------------------|
G|------------------------------------|
D|------------------7-7-7-7-7-7-7-7---|x3
A|-4-4-4-4-4-4-4-4--5-5-5-5-5-5-5-5---|
E|-2-2-2-2-2-2-2-2--------------------|
   . . . . . . . .  . . . . . . . .

 pm-----------------------------------|
E|------------------------------------|
B|------------------------------------|
G|------------------------------------|
D|------------------------------------|
A|-7-7-7-7-7-7-7-7--2-2-2-2-2-2-2-2---|
E|-5-5-5-5-5-5-5-5--0-0-0-0-0-0-0-0---|
   . . . . . . . .  . . . . . . . .

 pm---------------------------|
E|----------------------------|
B|----------------------------|
G|------------------7-----9---|
D|------------------7--7--9---|
A|-4-4-4-4-4-4-4-4--5--7--7---|
E|-2-2-2-2-2-2-2-2-----5------|
   . . . . . . . .

note:gradually release pm on the 2s and 4s


Chorus:
E|------------------------------------------|
B|------------------------------------------|
G|-------------6--6-6-6-6--7--7-7-7-7-------|
D|-7--7-7-7-7--6--6-6-6-6--7--7-7-7-7--4--5-|x3
A|-7--7-7-7-7--4--4-4-4-4--5--5-5-5-5--4--5-|
E|-5--5-5-5-5--------------------------2--3-|

E|----------------------------------------------|
B|----------------------------------------------|
G|-------------6--6-6-6-6--7--7-7-7-7-----------|
D|-7--7-7-7-7--6--6-6-6-6--7--7-7-7-7--4--5-5-2-|
A|-7--7-7-7-7--4--4-4-4-4--5--5-5-5-5--4--5-5-2-|
E|-5--5-5-5-5--------------------------2--3-3-0-|

then play the pre verse once, the verse once, and the chorus once but on the
4th repeat of the chorus instead of going down to the e chord it goes


E|--------------------------------|
B|--------------------------------|
G|-9-----10-10-9----7-----8-8-7---|
D|-9-------------9--7-----------7-|
A|-7-7-7------------5-5-5---------|
E|--------------------------------|

E|------------------------------|
B|------------------3-2---3-2---|
G|-9-----10-10-9--------2-----2-|
D|-9-------------9--------------|
A|-7-7-7------------------------|
E|------------------------------|

Solo:
E|----------------------------------------------------|
B|----------------------------------------------------|
G|----------------------------------------------------|
D|-6h7-7-7-6h7-7-7-6h7-7-7-6h7-7-7-6h7-7-7-6h7-7-7/14-|
A|----------------------------------------------------|
E|----------------------------------------------------|

note:let the 14s ring
E|-------------------------------------------|
B|-------------------------------15-14-12----|
G|-----14-----14-----14-16-14-16----------14-|
D|-/14-----14-----14-------------------------|
A|-------------------------------------------|
E|-------------------------------------------|

note:the first pull off is faster then the other notes
E|-10p9-12-9-10-9-12-9-10-9-12-9-10-9-12-9-10-9-|
B|----------------------------------------------|
G|----------------------------------------------|
D|----------------------------------------------|
A|----------------------------------------------|
E|----------------------------------------------|

E|-12-9-10-9-12-9-10-9-/14-12-9-10-9----10-9---------------|
B|-----------------------------------10------10-12-10-9-10-|
G|---------------------------------------------------------|
D|---------------------------------------------------------|
A|---------------------------------------------------------|
E|---------------------------------------------------------|

then an extended chorus, then pre verse then intro riff fading out


===========================================================================


Artist: Reel Big Fish
Song: Nothin'
Album: Turn the Radio Off


INTRO:
--|---------------------------------------|------|--|
--|---------------------------------------|------|--|
--|---------------------------------------|-9----|--|
--|-10--10-10-10--10--10--10--10-10-10-10-|-9----|--|
--|-10--10-10-10--10--10--10--10-10-10-10-|-7----|--|
--|--8---8--8--8---8---8---8---8--8--8--8-|------|--|

Play 2x
---------------------------------------|
---------------------------------------|
*-------------------------------------*|
*-10--10--10-10-10--10--10--10-10-10--*|
--10--10--10-10-10--10--10--10-10-10---|
---8---8---8--8--8---8---8---8--8--8---|

CHORUS:
-------------------------------------|----------------------|
-------------------------------------|----------------------|
-------------------------------------|-9---10---------------|
-10--10--10-10-10--10--10--10-10-10--|-9---10-----7---5-----|
-10--10--10-10-10--10--10--10-10-10--|-7----8-----7---5-----|
--8---8---8--8--8---8---8---8--8--8--|------------5---3-----|

VERSE:
------------------------Play 4x----|-----------------|-----------------|
-------------------------|---------|-----------------|-----------------|
*-2----2--X-X-5----------|--------*|-----------------|-----------------|
*-2----2--X-X-5---3---5--|-(5)----*|-3-3-3-3-3-3-3-3-|-5-5-5-5-5-5-5-5-|
--0----0--X-X-3---3---5--|-(5)-----|-3-3-3-3-3-3-3-3-|-5-5-5-5-5-5-5-5-|
------------------1---3--|-(3)-----|-1-1-1-1-1-1-1-1-|-3-3-3-3-3-3-3-3-|
p.m............. cresc.

SOLO (not exact, but close):
------------------|-----------|-----------------|------------|
------------------|-----------|-----------------|------------|
*-3-3-2-3-5-3-2---|-2-0-------|---------0-------|-----------*|
*---------------3-|-----------|-3-3-2-3---3-2---|-2---------*|
------------------|-----------|---------------3-|---3--------|
------------------|-----------|-----------------|--(3)-------| (1st time)

half-time feel
--------------------1---3--|
---------------1-1--1---3--|
-3p2---3-p2----------------|
-----3------3--------------|
---------------------------|
---------------------------|

SLOW SKA PART (clean):
----3-3---3----3-3---3--|---1-1---1----1-1---1--|---3-3---3----3-3---3--|
----5-5---5----5-5---5--|---1-1---1----1-1---1--|---5-5---5----5-5---5--|
*---5-5---5----5-5---5--|---2-2---2----2-2---2--|---5-5---5----5-5---5--|
*-----------------------|-----------------------|-----------------------|
------------------------|-----------------------|-----------------------|
------------------------|-----------------------|-----------------------|
_________________________ ________________________ _________________
1. 2. 3.
---3-3---3--3------------|---3-3---3--3-----------|-3-3-3-3-3-3-3-3-|
---3-3---3--3------------|---3-3---3--3---harm.---|-3-3-3-3-3-3-3-3-|
---4-4---4--4----dist.--*|---4-4---4--4----12----*|-4-4-4-4-4-4-4-4-|
----------------3-3--5--*|---clean---------------*|-----------------|
----------------3-3--5---|------------------------|-----------------|
----------------1-1--3---|------------------------|-----------------|

double-time ("It's gonna be alright... ")
--3--3--3--3-|---|--1--1--1--1-|---|--3--3--3--3-|---|--3--3--3--3-|---|
--5--5--5--5-|-*/|--1--1--1--1-|-*/|--5--5--5--5-|-*/|--3--3--3--3-|-*/|
--5--5--5--5-|-/-|--2--2--2--2-|-/-|--5--5--5--5-|-/-|--4--4--4--4-|-/-|
-------------|/*-|-------------|/*-|-------------|/*-|-------------|/*-|
-------------|---|-------------|---|-------------|---|-------------|---|
-------------|---|-------------|---|-------------|---|-------------|---|
____________________________________
dist. 1., 2.
------------------|-----------------|-----------------|------------------|
--5-5-5-5-5-5-5-5-|-----------------|-5-5-5-5-5-5-5-5-|------------------|
*-5-5-5-5-5-5-5-5-|-2-2-2-2-2-2-2-2-|-5-5-5-5-5-5-5-5-|-4-4-4-4-4-4-4-4-*|
*-5-5-5-5-5-5-5-5-|-3-3-3-3-3-3-3-3-|-5-5-5-5-5-5-5-5-|-5-5-5-5-5-5-5-5-*|
--3-3-3-3-3-3-3-3-|-3-3-3-3-3-3-3-3-|-3-3-3-3-3-3-3-3-|-5-5-5-5-5-5-5-5--|
------------------|-1-1-1-1-1-1-1-1-|-----------------|-3-3-3-3-3-3-3-3--|
___________
3.
------|----|--------------------------------------|-----------------|----|
-5----|----|--------------------------------------|-----------------|----|
-5----|----|--------------------------------------|-9-10--10--------|-5--|
-5----|----|-10--10--10-10-10--10--10--10-10--10--|-9-10--10-7-5--5-|-5--|
-3----|----|-10--10--10-10-10--10--10--10-10--10--|-7--8---8-7-5--5-|-3--|
------|----|--8---8---8--8--8---8---8---8--8---8--|----------5-3--3-|----|


============================================================================


Artist: Reel Big Fish
Song: Say "Ten"
Album: Turn the Radio Off


By: thanks to Joseph (Moseph529@aol.com) for this tab!

riff 1, after horn intro:(clean)
     A               B               D               A         6x
e||-----5-5--x--5-|----7-7--x--7-|----5-5--x--5-|----5-5--x--5--||
B||--r--5-5--x--5-|-r--7-7--x--7-|-r--7-7--x--7-|-r--5-5--x--5--||
G||*-e--6-6--x--6-|-e--8-8--x--8-|-e--7-7--x--7-|-e--6-6--x--6-*||
D||*-s--7-7--x--7-|-s--9-9--x--9-|-s--7-7--x--7-|-s--7-7--x--7-*||
A||--t--7-7-----7-|-t--9-9-----9-|-t--5-5-----5-|-t--7-7-----7--||
E||---------------|--------------|--------------|---------------||

riff 2:(distorted)  _1,2,3______4______________
     E       F#     |          |     G  G#
e||-----------------|-------4x||---------------|
B||---------------r-|---r-----||-r-------------|
G||*--------------e-|---e----*||-e-------------|
D||*---*-*-*-4-4--s-|---s----*||-s-------------|
A||--2-2-2-2-4-4--t-|---t-----||-t---5--6------|
E||--0-0-0-0-2-2----|---------||-----3--4------|

riff 1 6x

riff 2 4x, then:

  (distorted)
   A      C      D      E       A      C      D         E
e|----------------------------|-------------------------------|
B|----------------------------|-------------------------------|
G|-----2------5------7------9-|-----2------5--7-7-7-7-7-9-9-9-|
D|-2-2-2--5-5-5--7-7-7--9-9-9-|-2-2-2--5-5-5--7-7-7-7-7-9-9-9-|
A|-0-0-0--3-3-3--5-5-5--7-7-7-|-0-0-0--3-3-3--5-5-5-5-5-7-7-7-|
E|-*-*----*-*----*-*----*-*---|-*-*----*-*--------------------|
     A    C    D    E
e||-----------------------||4x
B||-----------------------||
G||*-2222-5555-7777-9999-*||
D||*-2222-5555-7777-9999-*||
A||--0000-3333-5555-7777--||
E||-----------------------||
     B      A#         B      A#
e||---------------3x||---------------|
B||-----------------||-------------r-|
G||*---------------*||-------------e-|
D||*-9-9--9-8-8--8-*||-9-9--9-8-8--s-|
A||-----------------||-------------t-|
E||--7-7--7-6-6--6--||-7-7--7-6-6----|

  double-time(clean)
   A                 B                 D                 A             4x
e|-5-5-x-5-x-5-x-5-|-7-7-x-7-x-7-x-7-|-5-5-x-5-x-5-x-5-|-5-5-x-5-x-5-x-5-|
B|-5-5-x-5-x-5-x-5-|-7-7-x-7-x-7-x-7-|-7-7-x-7-x-7-x-7-|-5-5-x-5-x-5-x-5-|
G|-6-6-x-6-x-6-x-6-|-8-8-x-8-x-8-x-8-|-7-7-x-7-x-7-x-7-|-6-6-x-6-x-6-x-6-|
D|-7-7-x-7-x-7-x-7-|-9-9-x-9-x-9-x-9-|-7-7-x-7-x-7-x-7-|-7-7-x-7-x-7-x-7-|
A|-----------------|-----------------|-----------------|-----------------|
E|-----------------|-----------------|-----------------|-----------------|

riff 2 1x

NOTES:  * means palm muted.  This is a pretty easy song to play.  Well,
	enjoy the tab!

==============================================================================


Artist: Reel Big Fish
Song: I'll Never Be
Album: Turn the Radio Off


Transcribed by Luke Knox (lukeknox@iname.com)

Intro: (Played 2x)
A G G# A
E-5-5-5-5--3-3-3--4--5-x-x-|
B-5-5-5-5--3-3-3--4--5-x-x-|
G-6-6-6-6--4-4-4--5--6-x-x-|
D-7-7-7-7--5-5-5--6--7-x-x-|
A--------------------------|
E--------------------------|

Then play this progression 8x:
A G D
E--5---3---5---|
B--5---3---7---|
G--6---4---7---|
D--6---5---7---|
A--------------|
E--------------|

Barre chord part: (* means to play harmonics)
E--------------------------//9----------------------------|
B----------------------------------------------------*20--|
G--------7--x--x--------7------------------------7---*20--|
D--7--5--7--x--x--5--7--7------5--7--5--7--5--7--7--------|
A--7--5--5--x--x--5--7--5------5--7--5--7--5--7--5--------|
E--5--3-----x--x--3--5---------3--5--3--5--3--5-----------|
A G D G A D G A G A G A D

Verse: (repeated) Listen to the CD for rythym.
D Bm G A
E--5---7---3---5----|
B--7---7---3---5----|
G--7---7---4---6----|
D--7---9---5---7----|
A------9------------|
E-------------------|

Chorus: ("Anything at aaall. . . ")
E--------------|
B--------------|
G--7-----------|
D--7--7--9--5--|
A--5--7--9--5--|
E-----5--7--3--|
D A B G
Repeat 3x.

Then go back to A - G - D ska pattern 8x.

Then the Barre chord part, and play this part instead of harmonics:
E------15------|
B----------14--|
G--14----------|


This riff is played 2x at the end:
E--3-3-2-0----|
B----------3--|
G-------------|


======================================================================


Artist: Reel Big Fish
Song: Alternative, Baby
Album: Turn the Radio Off


intro: _1__________________2________________
D# C C# G#A#| D# C C# G# | D# C G#
e||------------------|-----------------||----------------|---------------|
B||------------------|-----------------||----------------|---------------|
G||*-8---5---66------|-8---5---66-----*||-8---5----------|---------------|
D||*-8---5---66--6-8-|-8---5---66--6--*||-8---5---6------|-(6)-----------|
A||--6---3---44--6-8-|-6---3---44--6---||-6---3---6------|-(6)---x\------|
E||--------------4-6-|-------------4---||---------4------|-(4)---x\------|


main riff:2x (clean, rhythm not accurate-listen to CD)
D# Cm G# A# D# Cm G# A#
e||--6-6-x-6-x-6-x-6-|-x-3-x-3-x-4-x-6-|-6-6-x-6-x-6-x-6-|-x-3-x-3-4---6--||
B||--8-8-x-8-x-8-x-8-|-x-4-x-4-x-4-x-6-|-8-8-x-8-x-8-x-8-|-x-4-x-4-4---6--||
G||*-8-8-x-8-x-8-x-8-|-x-5-x-5-x-5-x-7-|-8-8-x-8-x-8-x-8-|-x-5-x-5-5---7-*||
D||*-8-8-x-8-x-8-x-8-|-x-5-x-5-x-6-x-8-|-8-8-x-8-x-8-x-8-|-x-5-x-5-6---8-*||
A||------------------|-----------------|-----------------|----------------||
E||------------------|-----------------|-----------------|----------------||


e|----------------|
B|----------------| =this measure instead of last measure of main riff on
G|----------------| 2nd time.
D|-5-6^5-6-/8~----|
A|----------------|
E|-(distorted)----|

verse:clean (no rhythm, listen to CD, played ska style)
D# C7(?) G# A# G#A#
e||--6---6---8---8---|-4---4---6---4-6--||4x
B||--8---8---8---8---|-4---4---6---4-6--||
G||*-8---8---9---9---|-5---5---7---5-7-*||
D||*-8---8---8---8---|-6---6---8---6-8-*||
A||------------------|------------------||
E||------------------|------------------||

pre-chorus:(clean)
Fm A# D# Cm
e|----8--8--x--8---|-----6-6-x---6---|---------x-------|-----3-3-x---3---|
B|-r--9--9--x--9---|-r---6-6-x---6---|-r---8-8-x---8---|-r---4-4-x---4---|
G|-e--10-10-x--10--|-e---7-7-x---7---|-e---8-8-x---8---|-e---5-5-x---5---|
D|-s--10-10-x--10--|-s---8-8-x---8---|-s---8-8-x---8---|-s---5-5-x---5---|
A|-t--8--8-----8---|-t---8-8---------|-t---6-6-----6---|-t---3-3-----3---|
E|-----------------|-----6-6---------|-----------------|-----------------|
G# G# A# D D C C D
e|-----4-4-x---4---|-----4-4-x---4---|-----------------|-----------------|
B|-r---4-4-x---4---|-r---4-4-x---4---|-(distorted)-----|-----------------|
G|-e---5-5-x---5---|-e---5-5-x---5---|-----------------|-7-7---7-5--5-7--|
D|-s---6-6-x---6---|-s---6-6-x---6---|-8-------8-------|-7-7---7-5--5-7--|
A|-t---6-----------|-t---6-----------|-8-------8-------|-5-5---5-3--3-5--|
E|-----4-----------|-----4-----------|-6-------6-------|-----------------|

chorus:(distorted)
G# A# D# na G# A# D#
e|-----------------|-----------------|-----------------|-----------------|
B|-----------------|-8---------------|-----------------|-8---------------|
G|-----------------|-8---------------|-----------------|-8---------------|
D|-6---6---8---8---|-8---------------|-6---6---8---8---|-8-----/10-8-----|
A|-6---6---8---8---|-6------/10-8-10-|-6---6---8---8---|-6-----------10~\|
E|-4---4---6---6---|-----------------|-4---4---6---6---|-----------------|
G# A# D# Cm G# A#
e|-----------------|-----------------|-----------------|-----------------|
B|-----------------|-8-----------4---|-----------------|-----------------|
G|-----------------|-8-----------5---|-----------------|-----------------|
D|-6---6---8---8---|-8-----------5---|-6---------------|-8---------------|
A|-6---6---8---8---|-6-----------3---|-6---------------|-8---------------|
E|-4---4---6---6---|-----------------|-4---------------|-6---------------|


*main riff 1x


*verse


*pre-chorus


*chorus


*intro


*during trumpet solo, play main riff 2x w/o the little distorted riff during
it. Only at the end,even though it's not the same one(close enough).


*pre-chorus


*chorus


*intro ?x, you can figure it out for yourself, should be easy, then,


outro:
D#
e|-----------------|-------------|
B|--------------r--|-8\----------|
G|--------------e--|-8\----------|
D|-----5-6-5----s--|-8\----------|
A|-6-8-------8--t--|-6\----------|
E|-----------------|-------------|


NOTES:The rhythm for what I called the main riff isn't right. The chords
should be though. Actually the rhythm for the whole song isn't really
there(except for the pre-chorus), but the measures are there. Enjoy!!


============================================================================


Artist: Reel Big Fish
Song: Secret Song / Cool Ending / Off
Album: Turn the Radio Off


(intro)
e--------------------------------------------------|
b--------------------------------------------------|
g----------------------------------------1--4--1---|
d-----1--4--2-2-2-1---1-----1--4--2-2-2------------|
a---2---------------4----2-------------------------|
e--------------------------------------------------|

e|---------------------------------------------|
B|---------------------------------------------|
G|-----------------------------3--6--4--3--4---|
D|----1--4--2-2-2-1----1--4-4------------------|
A|--2---------------4--------------------------|
E|---------------------------------------------|

(verse)
e------------------------|x3
b------------------------|
g---3--3-3-3-3---8-8-8---|
d---3--3-3-3-3---8-8-8---|
a---1--1-1-1-1---6-6-6---|
e------------------------|


e-------------------------|
b-------------------------|
g---5--5-5-5-5--5-5-5-5---|
d---5--5-5-5-5--5-5-5-5---|
a---3--3-3-3-3--3-3-3-3---|
e-------------------------|

(verse)
e------------------------|x3
b------------------------|
g---3--3-3-3-3---8-8-8---|
d---3--3-3-3-3---8-8-8---|
a---1--1-1-1-1---6-6-6---|
e------------------------|


e--------------------|
b--------------------|
g----------------5---|
d----------------5---|
a----------------3---|
e---2---5---6~-------|

(verse)
e------------------------|x3
b------------------------|
g---3--3-3-3-3---8-8-8---|
d---3--3-3-3-3---8-8-8---|
a---1--1-1-1-1---6-6-6---|
e------------------------|


e---------|
b---------|
g---5-----|
d---5-----|
a---3-----|
e---------|

(verse)
e------------------------|x3
b------------------------|
g---3--3-3-3-3---8-8-8---|
d---3--3-3-3-3---8-8-8---|
a---1--1-1-1-1---6-6-6---|
e------------------------|

(chorus)
e-------------------------------------------|x2
b-------------------------------------------|
g-----8-8--5-5--7-7-7-7-7-------------------|
d-----8-8--5-5--7-7-7-7-7-------------------|
a-----6-6--3-3--5-5-5-5-5-------------------|
e---------------------------2-2--5-5--6-6---|

e---------------------|
b---------------------|
g---8---7---5-5---3---|
d---8---7---5-5---3---|
a---6---5---3-3---1---|
e---------------------|

(verse)
e------------------------|x3
b------------------------|
g---3--3-3-3-3---8-8-8---|
d---3--3-3-3-3---8-8-8---|
a---1--1-1-1-1---6-6-6---|
e------------------------|


e-------------------------|
b-------------------------|
g---5--5-5-5-5--5-5-5-5---|
d---5--5-5-5-5--5-5-5-5---|
a---3--3-3-3-3--3-3-3-3---|
e-------------------------|

(verse)
e------------------------|x3
b------------------------|
g---3--3-3-3-3---8-8-8---|
d---3--3-3-3-3---8-8-8---|
a---1--1-1-1-1---6-6-6---|
e------------------------|


e--------------------|
b--------------------|
g----------------5---|
d----------------5---|
a----------------3---|
e---2---5---6~-------|

(verse)
e------------------------|x3
b------------------------|
g---3--3-3-3-3---8-8-8---|
d---3--3-3-3-3---8-8-8---|
a---1--1-1-1-1---6-6-6---|
e------------------------|


e---------|
b---------|
g---5-----|
d---5-----|
a---3-----|
e---------|

(verse)
e------------------------|x3
b------------------------|
g---3--3-3-3-3---8-8-8---|
d---3--3-3-3-3---8-8-8---|
a---1--1-1-1-1---6-6-6---|
e------------------------|

(chorus)
e-------------------------------------------|x2
b-------------------------------------------|
g-----8-8--5-5--7-7-7-7-7-------------------|
d-----8-8--5-5--7-7-7-7-7-------------------|
a-----6-6--3-3--5-5-5-5-5-------------------|
e---------------------------2-2--5-5--6-6---|

e---------------------|
b---------------------|
g---8---7---5-5---3---|
d---8---7---5-5---3---|
a---6---5---3-3---1---|
e---------------------|

Tabber: David Allard

===============================================================

Thanks again for everyone who created these tabs!

Thanks to:

Vulgar101- Join the Club

Simon Mooney (skanking_in_unity@hotmail.com)- Beer

Joseph (Moseph529@aol.com)- say "Ten"

Luke Knox (lukeknox@iname.com)- I'll Never Be

David Allard- Secret Song


If your name isn't in here and one of these tabs
are yours then send in your name and the tabs
that is yours.


Thanks! Hope you enjoyed them!!!
Tap to rate this tab
 
# A B C D E F G H I J K L M N O P Q R S T U V W X Y Z