Song name
# A B C D E F G H I J K L M N O P Q R S T U V W X Y Z

Reel Big Fish - Somebody Hates Me tab

Somebody Hates Me - Reel Big Fish

Transcribed by Sean Lewis 'salnys@hotmail.com"

I've arranged a 2 guitar intro so you can see the variances.
The U's and D's above the chords are Up-strokes and Down-strokes to help people 
get a "feel" for how to play the chord passages efficiently. 
Take note of the chord slides. They're crucial to the feel.
Have fun.



Intro: [2 guitars, Distorted]
--------------------------------------------------------------------------


Gtr. 1
e]--------------------------]
B]--------------------------]
G]-2--x-6-7---------4---x-7-]
D]-2--x-6-7---------4---x-7-]
A]-0--x-4-5---------2---x-5-]
E]--------------------------]

Gtr. 2
e]--------------------------]
B]--------------------------]
G]-2--x-6-7-----------------]
D]-2--x-6-7-----------------]
A]-0--x-4-5----x\/\/\/\/\/--]
E]-------------x\/\\/\/\/\--]
               * Pick scrape

--------------------------------------------------------------------------


Gtr. 1
e]------------------------------]
B]--12p9------------------------]
G]-------11p9-------------------]
D]------------11----------------]
A]---------------12~~-----------]
E]---------------------9--10----]

Gtr. 2 Distortion
e]------------------------------]
B]--12p9------------------------]
G]-------11p9-------------------]
D]------------11----------------]
A]---------------12~~-----------]
E]---------------------9--10----]


--------------------------------------------------------------------------


Gtr. 1
e]----------------------------------------------------------------]
B]----------------------------------------------------------------]
G]-----7-9--9b11r9--7h9p7--6--------------------6-----------------]
D]-x/9-----------------------7----------7h9p7-----10-9--7---------]
A]------------------------------9---7h9---------------------------]
E]---------------------------------------------------------5/17\--]

Gtr. 2 Distortion
e]----------------------------------------------------------------]
B]----------------------------------------------------------------]
G]-----7-9--9b11r9--7h9p7--9-6--7---------------9--8-7--6---------]
D]-x/9----------------------------------7h9p7---------------------]
A]----------------------------------7h9---------------------------]
E]---------------------------------------------------------5/17\--]




Pre-Verse 1: [Clean]
--------------------------------------------------------------------------

    D   U   D   U       U   D   U       U D   U   D  U D  U D   U
e]--x---5---x---5-----------x-----------------x---9--9-9--7-7---5-]
B]--x---5---x---5-------9---x---9-\-7---7-7---x---9--9-9--7-7---5-]
G]--x---6---x---6-------9---x---9-\-7---7-7---x---x--x-x--x-x---x-]
D]--x---7---x---7-------9---x---9-\-7---7-7---x-------------------]
A]--x--(7)--x--(7)-----(7)--x--(7)\(5)-(5-5)--x-------------------]
E]--x--(5)--x--(5)----------x-----------------x-------------------]




Pre-Verse 2: [Clean]
--------------------------------------------------------------------------
 
     D   D U   D  U      D   D U    D  U
e]---5---5-5------------------------------]
B]---5---5-5---9--9------7---7-7----9--9--]
G]---6---6-6---9--9------7---7-7----9--9--]
D]---7---7-7---9--9------7---7-7----9--9--]
A]---7---7-7---7--7------5---5-5----7--7--]
E]---5---5-5------------------------------]



Verse: [Clean]
--------------------------------------------------------------------------

    D   U   D   U   D   U   D   U       U   D   U   D   U   D   U
e]--x---5---x---5---x-------x---------------x-------x-------x-------]
B]--x---5---x---5---x---9---x---9-\-7---7---x---7---x---9---x---9---]
G]--x---6---x---6---x---9---x---9-\-7---7---x---7---x---9---x---9---]
D]--x---7---x---7---x---9---x---9-\-7---7---x---7---x---9---x---9---]
A]--x--(7)--x--(7)--x--(7)--x--(7)\(5)-(5)--x--(5)--x--(7)--x--(7)--]
E]--x--(5)--x--(5)--x-------x---------------x-------x-------x-------]



Pre-Chorus: [Distorted]
--------------------------------------------------------------------------

               I     Don't     Know
PM  [ - - - - - - - - - - - - -]
e]--------------------------------------]
B]--------------------------------------]
G]--------------------------------------]
D]--------------------------------------]
A]-----------------------------4--------]
E]--5-------5-----5-----5---------------]
            \  TRIPLET! /

--------------------------------------------------------------------------


PM  [ - - - - - - - - - - - - - - - - - - - - - - - - - -]
e]-----------------------------------------------------------]
B]-----------------------------------------------------------]
G]-----------------------------------------------------------]
D]-----------------------------------------------------------]
A]--4--4-----------------------------------------------------]
E]-------5--5--7--7--5-----7--7--5-----7--7--5-----7--7--5---]



--------------------------------------------------------------------------


                      What   I      Do
e]----------------------------------------------]
B]----------------------------------------------]
G]----------------------------------------------]
D]----------------------------------------------]
A]------5------0------5------0------7~~~~~~~~~--]
E]----------------------------------------------]



Chorus: [Distorted]
--------------------------------------------------------------------------

     D   D U   D     U D U D U D U   D   D U   D    U D U D U D U
e]-------------------x-x-x-x-x-x-x------------------x-x-x-x-x-x-x--]
B]-------------9-----x-x-x-x-x-x-x---7---7-7---9----x-x-x-x-x-x-x--]
G]---6---6-6---9-----x-x-x-x-x-x-x---7---7-7---9----x-x-x-x-x-x-x--]
D]---7---7-7---9-----x-x-x-x-x-x-x---7---7-7---9----x-x-x-x-x-x-x--]
A]---7---7-7---7-----x-x-x-x-x-x-x---5---5-5---7----x-x-x-x-x-x-x--]
E]---5---5-5---------x-x-x-x-x-x-x------------------x-x-x-x-x-x-x--]
                                                                     x2

--------------------------------------------------------------------------



e]--------------------------------------]
B]--------------------------------------]
G]-------------------------7---7-7---9--]
D]---7---7-7----9--9--9----7---7-7---9--]
A]---7---7-7----9--9--9----5---5-5---7--]
E]---5---5-5----7--7--7-----------------]



Bridge: [Distorted]
--------------------------------------------------------------------------


PM       [ - -]     [ - - - - ]           [ - - ]      [ - - - - ]
e]---------------------------------------------------------------------]
B]---------------------------------------------------------------------]
G]---------------4--4-4-4-4-4-4-2-------------------2--2-2-2-2-2-2-----]
D]-4--4----------4--4-4-4-4-4-4-2---6--6------------2--2-2-2-2-2-2-----]
A]-4--4-------4--2--2-2-2-2-2-2-0---6--6--------2---0--0-0-0-0-0-0-----]
E]-2--2--2--5-----------------------4--4--2--4----------------------4--]


--------------------------------------------------------------------------


PM       [ - -]     [ - - - ]
e]-----------------------------------------------------------------]
B]-----------------------------------------------------------------]
G]---------------4--4-4-4-4-4---6------7--------7--------9---9-----]
D]-4--4----------4--4-4-4-4-4---6------7--------7--------9---9-----]
A]-4--4-------4--2--2-2-2-2-2---4------5--------5--------7---7-----]
E]-2--2--2--5------------------------------------------------------]



Breakdown: [Clean (First chord distorted)]
--------------------------------------------------------------------------


e]--------------------------------------------------------]
B]-----------------------------10-------------------------]
G]---------------------------9----------------------------]
D]--7-----------------------------------------------------]
A]--7-----------------------------------------------------]
E]--5-----------------------------------------------------]


--------------------------------------------------------------------------



e]----------------------------------------------------------------]
B]-10----10-10-10-10--9---10-10-10-10--9---10-10-10-10--9---------]
G]--9-----9--9--9--9--9----9--9--9--9--9----9--9--9--9--9---9-9---]
D]----------------------------------------------------------9-9---]
A]----------------------------------------------------------------]
E]----------------------------------------------------------------]



--------------------------------------------------------------------------



e[-------------------------------------------------------------------------]
B]-10----10-10-10-10--9---10-10-10-10--9---10-10-10-10-12--12-12-12-12-12--]
G]--9-----9--9--9--9--9----9--9--9--9--9----9--9--9--9--9---9--9--9--9--9--]
D[-------------------------------------------------------------------------]
A]-------------------------------------------------------------------------]
E]-------------------------------------------------------------------------]



Build Up: [Distorted]
--------------------------------------------------------------------------


e]--------------------------------------]
B]--------------------------------------]
G]-----------------------7--7--6/7---7--]
D]--7--7--x--6---2-------x--x--x/----x--]
A]--7--7--x--6---2-------5--5--4/5---5--]
E]--5--5--x--4---0----------------------]



--------------------------------------------------------------------------

That will about do it. Everything you NEED is there. I know I got a little lazy towards the end.
I'm well aware of the extra layers towards the end of the bridge.
AND the solo over the intro riff. I'll leave that up to you guys.

Enjoy.
Tap to rate this tab
# A B C D E F G H I J K L M N O P Q R S T U V W X Y Z