Song name
# A B C D E F G H I J K L M N O P Q R S T U V W X Y Z

Reel Big Fish - Cheer Up tab

Help us improve GuitareTab! Take a short survey!
Artist:Reel Big Fish
Song:Cheer Up
Album:Cheer Up!
Tabbed by:Duncan S/reelbigfish432

All of the other tabs didnt have the bridge part properly. Probably because it's hard to 
but oh well. There are 2 guitars, guitar 1 (Aaron) and guitar 2 (Scott).

Legend:
/-slide up
\-slide down
pm--- and .-palm mute
x-string mute
b-bend
r-return bend
~-vibrato

Intro:
Guitar 1
E|---------------------------|
B|---------------------------|
G|-/8-6~---------------------|
D|---------------------------|
A|---------------------------|
E|---------------------------|
 |                           |
 |Guitar 2                   |
E|---------------------------|
B|---------------------------|
G|----6\--------4-4----------|
D|----6\-x-xx-x-4-4--4-4-4-4-|
A|----4\-x-xx-x-2-2--4-4-4-4-|
E|-------x-xx-x------2-2-2-2-|

note:guitar 2 does this all throuh the intro and pre verses and verses, except the last 
when there are no string mutes

Guitar 1
E|---------------------------|
B|-/7-6-b7rbrbrbrbr----------|
G|---------------------------|
D|---------------------------|
A|---------------------------|
E|---------------------------|

Guitar 1
    pm---  --------------------|
E|-----------------------------|
B|--------------------2--------|
G|-/8-6666-4444-3-3-4---3-1~---|
D|-----------------------------|
A|-----------------------------|
E|-----------------------------|
      ...  ...

then the verse is guitar 1 and 2 playing the same chords as the intro but only guitar 2 
the string mutes.

Pre-Chorus:
Guitar 1
E|-------------------------|
B|-------------------------|
G|-------------------------|
D|-6-----9----9--9--9--9---|
A|-6-----9----9--9--9--9---|
E|-4-----7----7--7--7--7---|
 |                         |
 |Guitar 2                 |
E|-------------------------|
B|-------------------------|
G|-------------------------|
D|-6~--6/9----999999999999-|
A|-------------------------|
E|-------------------------|

Chorus:
Both Guitars

E|-------------------|
B|-------------------|
G|-6-6-6-6--4-4------|
D|-6-6-6-6--4-4--4-4-|x3
A|-4-4-4-4--2-2--4-4-|
E|---------------2-2-|

E|-------------------|
B|-------------------|
G|-6-6-6-6--66666666-|
D|-6-6-6-6--66666666-|
A|-4-4-4-4--44444444-|
E|-------------------|

Pre-Verse:

Guitar 1
    pm---  --------------------|
E|-----------------------------|
B|--------------------2--------|
G|-/8-6666-4444-3-3-4---3-1~---|
D|-----------------------------|
A|-----------------------------|
E|-----------------------------|
      ...  ...

and guitar 2 plays the verse riff

Then theres another verse, then;

2nd Chorus:
E|-------------------|
B|-------------------|
G|-6-6-6-6--4-4------|
D|-6-6-6-6--4-4--4-4-|x4
A|-4-4-4-4--2-2--4-4-|
E|---------------2-2-|

Bridge:
Guitar 1
E|-----------------------------|
B|-----------------------------|
G|-/666666666666-444444--------|
D|----------------------444444-|
A|-----------------------------|
E|-----------------------------|
 |                             |
 |Guitar 2                     |
E|-----------------------------|
B|-----------------------------|
G|-----------------------------|
D|-----------------------------|
A|--4~-----------2~------------|
E|----------------------2~-----|

Guitar 1
E|-----------------------------|
B|-----------------------------|
G|-/666666666666-444444--------|
D|----------------------444444-|
A|-----------------------------|
E|-----------------------------|
 |                             |
 |Guitar 2                     |
E|-----------------------------|
B|-----------------------------|
G|-----------------------------|
D|--3~-----------1~------------|
A|----------------------4~-----|
E|-----------------------------|

Guitar 1
E|-----------------------------|
B|-----------------------------|
G|-/666666666666-444444--------|
D|----------------------444444-|
A|-----------------------------|
E|-----------------------------|
 |                             |
 |Guitar 2                     |
E|---------------/9------------|
B|--9-------------------/9-----|
G|-----------------------------|
D|-----------------------------|
A|-----------------------------|
E|-----------------------------|

Guitar 1
E|----------9\---|
B|--6--7-9-----7-|
G|---------------|
D|---------------|
A|---------------|
E|---------------|
 |               |
 |Guitar 2       |
E|-/9-------9\---|
B|-------------7-|
G|---------------|
D|---------------|
A|---------------|
E|---------------|

Guitar 1
E|----------------------|
B|-6----------7---------|
G|----------------------|
D|----------------------|
A|----------------------|
E|----------------------|
 |                      |
 |Guitar 2              |
E|----------------------|
B|----------------------|
G|-----6----------8-----|
D|-------8----------9---|
A|---8-----8----9-----9-|
E|-6----------7---------|

Guitar 1
E|-----------------------|
B|-p6----------7\--------|
G|-----------------------|
D|-----------------------|
A|-----------------------|
E|-----------------------|
 |                       |
 |Guitar 2               |
E|-----------------------|
B|-----------------------|
G|------6----------8-----|
D|--------8----------9---|
A|----8-----8----9-----9-|
E|--6----------7---------|

Guitar 1
E|-/6----------7--\------|
B|-/6----------7--\------|
G|-----------------------|
D|-----------------------|
A|-----------------------|
E|-----------------------|
 |                       |
 |Guitar 2               |
E|-----------------------|
B|-----------------------|
G|------6----------8-----|
D|--------8----------9---|
A|----8-----8----9-----9-|
E|--6----------7---------|

Guitar 1
E|--------------------|
B|-4~-----------------|
G|--------------------|
D|-------9----9-9-9-9-|
A|-------9----9-9-9-9-|
E|-------7----7-7-7-7-|
 |                    |
 |Guitar 2            |
E|--------------------|
B|--------------------|
G|--------------------|
D|-6-----9----9-9-9-9-|
A|-6-----9----9-9-9-9-|
E|-4-----7----7-7-7-7-|

then play the chorus riff 4 times, then a verse without the string mutes then this, just 
the end of the final verse and before the final chorus when it goes `life, aint, worth livin'!`

note:guitar 2s slide lasts until the end of the bar
Guitar 1
E|-------------------|
B|-------------------|
G|-6\--444444--------|
D|-6\--444444-444444-|
A|-4\--222222-444444-|
E|------------222222-|
 |                   |
 |Guitar 2           |
E|-------------------|
B|-------------------|
G|-6\----------------|
D|-6\--/-------------|
A|-4\--/-------------|
E|-----/-------------|

then play the chorus riff about 8 times then end on both guitars doing this;

Outro:
Both Guitars
E|------------------|
B|------------------|
G|-666666666666--6\-|
D|-666666666666--6\-|
A|-444444444444--4\-|
E|------------------|

And thats it, comments ratings and improvements are welcome, enjoy!
Related for Cheer Up tab