Guitaretab - guitar tabs
Song name
# A B C D E F G H I J K L M N O P Q R S T U V W X Y Z

Reel Big Fish - Brand New Hero tab

Reel Big Fish
Brand New Hero
Cheer Up!

Good Song

Enjoy

Intro / Verse
1st Guitar
Palm Mute

------------------|
------------------|
-6----6-----------|
-6-8x-6-8x-4------|
-4----3----4-16x--|
-----------2------| (5x)

Pre-Chorus

--------------------------|
--------------------------|
-6----6-------------------|
-6-8x-6-8x-4-----4-4-4-4--|
-4----3----4-12x-4-4-4-4--|
-----------2-----2-2-2-2--|
 .    .    .

Chorus

Leavin' today..
---------------------------------|
---------------------------------|
-6-6-6-6-6-6-6-6-8-8-8-8---------|
-x-x-x-x-x-x-x-x-x-x-x-x-4-4-6-6-|
-4-4-4-4-3-3-3-3-6-6-6-6-4-4-6-6-|
-------------------------2-2-4-4-|

Repeat Verse

Repeat Chorus

Guitar 2 Does Solo and then....

Always talking...
----------------------------------------|
----------------------------------------|
-8~--6~--8~--6~--8~--6~--8-8-8-8-8-8-8--|
-6~--4~--6~--6~--8~--6~--8-8-8-8-8-8-8--|
-6~--4~--6~--4~--6~--4~--6-6-6-6-6-6-6--|
----------------------------------------|

Repeat Chorus A bunch Then!....

------------------|
------------------|
------------------|
------------------|
--9--8--6--8--4~--|
------------------|

Guitar 2
Intro / Verse
Palm Mute

------------------|
------------------|
-6----6-----------|
-6-8x-6-8x-4------|
-4----3----4-16x--|
-----------2------| (5x)

Pre-Chorus

--------------------------|
--------------------------|
-6----6-------------------|
-6-8x-6-8x-4-----4-4-4-4--|
-4----3----4-12x-4-4-4-4--|
-----------2-----2-2-2-2--|
 .    .    .

Chorus
[ Tab from: http://www.guitaretab.com/r/reel-big-fish/43165.html ]
--------------------------------------|
--------------------------------------|
-6-6-6-6-6-6-6-6-8-8-8-8--11-10-8--6--|
-x-x-x-x-x-x-x-x-x-x-x-x--x--x--x--x--|
-4-4-4-4-3-3-3-3-6-6-6-6--9--8--6--4--|
--------------------------------------|

------------------------------------|
------------------------------------|
------------------------------------|
------------------------------------|
-4~--3~--1~--1--3--4~--6~--6-s-9*---|
------------------------------------|

At the end it kinda goes into a pinch
harmonic but its not neccesary.

Verse

Chorus

Solo!

---------------------|
---------------------|
-11-10-8-10-6~-5~-3~-|
---------------------|
---------------------|
---------------------| (2x)

-----------------------------------------------|
-----------------------------------------------|
-11-10-8-10------6-8-10-----6-8-10-8-11-10-6~--|
-------------6-8--------6-8--------------------|
-----------------------------------------------|
-----------------------------------------------|

---------------------------------------|
---------------------------------------|
-----6-8-10-----6-8-10-8-11-10-13~~~---|
-6-8--------6-8------------------------|
---------------------------------------|
---------------------------------------|

Always talking...
----------------------------------------|
----------------------------------------|
-8~--6~--8~--6~--8~--6~--8-8-8-8-8-8-8--|
-6~--4~--6~--6~--8~--6~--8-8-8-8-8-8-8--|
-6~--4~--6~--4~--6~--4~--6-6-6-6-6-6-6--|
----------------------------------------|

Repeat Chorus end with....

----------------------|
----------------------|
--11--10--8---10--6~--|
--x---x---x---x---x~--|
--9---8---6---8---4~--|
----------------------|

Thats it
Enjoy
Related for Brand New Hero tab
Advertisement will be closed in 10 seconds