Song name
# A B C D E F G H I J K L M N O P Q R S T U V W X Y Z

Reel Big Fish - You Dont Know tab

<<<<=slide down

intro:
e------------------------------------------------------------------|
b------------------------------------------------------------------|
g------------------------------------------------------------------|
D------------------------------------------------6--9--6-<<<<------|
A------------------6--7--6--6--------------------------------------|
E---0--4--5--4--7--------------5--5--5--5--7--7--------------------|

e--------------------------------------------------------------------|
b--------------------------------------------------------------------|
g--------------------------------------------------------------------|
D------------------------------------------------------9--7--6-------|
A------------------6--7--6--6--------------------6--6-----------7--9-|
E---0--4--5--4--7--------------5--5--5--5--7--7----------------------|

Trumpet and Trombone section. will be figured out for guitar soon.

Verse:
Ska upstrokes, 4 on each(listen to the song to get the speed right.)

e--7-7-7-7--7-7-7-7--5-5-5-5--7-7-7-7-|
b--9-9-9-9--7-7-7-7--5-5-5-5--7-7-7-7-|
g--9-9-9-9--8-8-8-8--6-6-6-6--8-8-8-8-|
D--9-9-9-9--9-9-9-9--7-7-7-7--9-9-9-9-|
A--x-x-x-x--x-x-x-x--x-x-x-x--x-x-x-x-|
E--x-x-x-x--x-x-x-x--x-x-x-x--x-x-x-x-|

Bridge before chorus:

D--9----9--7-|
A--9----9--7-|
E--7-<<-6--5-|

e----------------------   /--------------------|
b----------------------   /--------------------|
g----------------------   /--------------------|
D--7-7-7-7-7--9-9-9-9-9   /--11--9--7-7-7-7--9-|
A--7-7-7-7-7--9-9-9-9-9   /--11--9--7-7-7-7--9-|
E--5-5-5-5-5--7-7-7-7-7 x3/--9---7--5-5-5-5--7-|(Let ring)
                                              "so keep your mouth shut"

hope this gives you the base of the song i know that its around 95% correct.
The verse and chorus are repeated in the same way but there is a slightly changed intro
used between the chorus and the verses, im sure it'll be easy to figure out, just use
intro riff to find it because its along those lines.
pete
Tap to rate this tab
# A B C D E F G H I J K L M N O P Q R S T U V W X Y Z