Guitaretab - guitar tabs
Song name
# A B C D E F G H I J K L M N O P Q R S T U V W X Y Z

Reel Big Fish - Boyfriend tab

yeah, this is a really easy song, its not hard at all cuz i tabbed it and its not that good, but it sounds 
so yeah, have fun


INTRO
e--------------------------------------------------|
B--------------------------------------------------|
G--------------------------------------------------|
D--------------------------------------------------|
A--------------------------------------------------|
E--5-0-50-6-0-6-5-0-5-0-7-0-7-5-6------------------| 2x

[ Tab from: http://www.guitaretab.com/r/reel-big-fish/43172.html ]
VERSE  (listen fot the guitar in the song)
e-----------------------------------------------------|
B-----------------------------------------------------|
G---------7-------------------------------------------|
D--7-7-7--7-------------------------------------------|
A--7-7-7--5-------------------------------------------|
E--5-5-5----------------------------------------------|


CHORUS
e-------------------------------------------------------|
B-------------------------------------------------------|
G---------4-4-4-----------------------------------------|
D--5-5-5--4-4-4--7-7-7----------------------------------|
A--5-5-5--2-2-2--7-7-7----------------------------------|
E--3-3-3---------5-5-5----------------------------------|


SOLO
e----------------------------10-----------------------------------|
B-7-8787-10-78787----7-8787-----7-8787----8787--------------------|
G-----------------7--------------------7--------------------------|
D-----------------------------------------------------------------|
A-----------------------------------------------------------------|
E-----------------------------------------------------------------|
Related for Boyfriend tab
Boyfriend chords by Reel Big Fish