Song name
# A B C D E F G H I J K L M N O P Q R S T U V W X Y Z

Reel Big Fish - One Hit Wonderful tab

Band: Reel Big Fish
Song: One Hit Wonderful
Album: We're not happy 'till you're not happy.

Intro:

e---3----2---0---200h2---------------------------------|
B----3----3---1--333-3---------------------------------|
G----------------222-2---------------------------------|  X 3
D------0---------000-0---------------------------------|
A-----------3------------------------------------------|
E--3---------------------------------------------------|


e----------222222--------------------------------------|
B--111111--333333--------------------------------------|
G--000000--222222--------------------------------------|
D--222222--000000--------------------------------------|
A--333333----------------------------------------------|
E------------------------------------------------------|

Verse:

e--3*---2*---0*---2*------------------------------------|
B--3----3----1----3-------------------------------------|
G--0----2----0----2-------------------------------------|X 2
D--0----0----2----0-------------------------------------|
A--2---------3------------------------------------------|
E--3----------------------------------------------------|
   G    D    C    D


e--3--0-2--3--0-2-----0--0--222222222222-----------------|
B--3--1-3--3--1-3-----0--1--333333333333-----------------|
G--0--0-2--0--0-2-----0--0--222222222222-----------------|
D--0--2-0--0--2-0-----2--2--000000000000-----------------|
A--2--3----2--3-------2--3-------------------------------|
E--3-------3----------0----------------------------------|
   G  C D  G  C D     Em C  D


Chorus:


e--3--0--0--2---------000000000000---000000--222222--------|
B--3--2--1--3---------000000000000---111111--333333--------|
G--0--2--0--2---X-3---000000000000---000000--222222--------|
D--0--2--2--0---------222222222222---222222--000000--------|
A--2--0--3------------222222222222---333333----------------|
E--3------------------000000000000-------------------------|

Intro 
Verse
Chorus

Extended chorus: G C G D x 3

Bridge: Em C Em D Em C D
Tap to rate this tab
# A B C D E F G H I J K L M N O P Q R S T U V W X Y Z