Song name
# A B C D E F G H I J K L M N O P Q R S T U V W X Y Z

Reel Big Fish - Talkin Bout A Revolution tab

Drop your low E string to a D
By: Jake Edwards
Reel big fish
Talkin' bout a Revolution
off the album: We're not Happy 'Til You're not Happy

This is my very first guitar tab. So if it sucks, I'm sorry.


intro
e|---------------------------------------------------|
b|---------------------------------------------------|
g|---------------------------------------------------|
d|--------3---------0-0------------------------------|
a|------------1-1--------3-0-----0-------------------|
D|---3-3----------------------5----------------------|


e|---------------------------------------------------|
b|---------------------------------------------------|
g|---------------------------------------------------|
d|-------3---------0---------------------------------|
a|-----------1-1------0------------------------------|
D|--3-3------------------0---------------------------|


  Verse "Ska up Strokes"
e|--1-1-1-1-5-5-3-3----|
b|--1-1-3-3-6-6-5-5----|
g|--2-2-3-3-5-5-5-5----|
d|---------------------|
a|---------------------|
D|---------------------|


e|--1----5-5-3-3-1-1-1-1-5-5-3-3----|
b|--1----6-6-5-5-1-1-3-3-6-6-5-5----| then repeat once
g|--2----5-5-5-5-2-2-3-3-5-5-5-5----|
d|----------------------------------|
a|----------------------------------|
D|----------------------------------|


If you listen to the recording, there is a few of these thrown in
e|---17-17-17--13-13-13-----|
b|--------------------------|
g|--------------------------|
d|--------------------------|
a|--------------------------|
D|--------------------------|

solo
e|-17-17-17--13-13-13--------------------------------|
b|---------------------------------------------------|
g|---------------------15-14-------------------------|
d|---------------------------15-15s17-17-15----------|
a|---------------------------------------------------|
D|---------------------------------------------------|

e|--------------13----13-----------------------------|
b|-----------------13----13--11-11p10-11-------------|
g|-15-14-15s17---------------------------10-10-------|
d|---------------------------------------------------|
a|---------------------------------------------------|
D|---------------------------------------------------|


e|---------------------------------------------------|
b|---------------------------------------------------|
g|---------------------------------------------------|
d|---------------------------------------------------|
a|-13-12-13-12-12-13-12-13s15------------------------|
D|---------------------------------------------------|

e|---------------------------------17-17-17-13-13-13-|
b|---------------------------------------------------|
g|---------------------------------------------------|
d|----------8-7--------------------------------------|
a|-8-8-8-10-----8------------------------------------|
D|-----------------7h8h10--7-3-----------------------|


sometimes the intro rist is also played with the verse at the same time.
{ska up Strokes}

end with the verse rift.

easy fun song to play.

Good song, good band, great music. Enjoy!
Tap to rate this tab
# A B C D E F G H I J K L M N O P Q R S T U V W X Y Z