Song name
# A B C D E F G H I J K L M N O P Q R S T U V W X Y Z

Reel Big Fish - Last Show tab

Band: Reel Big Fish
Song: Last Show
Album: We're not happy 'till you're not happy

Key: * - Let Ring
     H - Hammer on
     P - Pull off
     / - Slide up
     . - Palm Mute
     B - String bend

Intro:

e|----------------------------------------------|
B|----------------------------------------------|
G|-5*--------5*--------5*-----------------------|
D|-5---7--3--5---7--3--5---7--3-----------------|
A|-3---7--3--3---7--3--3---5--3-----------------|
E|-----5--1------5--1------5--1-----------------|

e|----------------------------------------------|
B|----------------------------------------------|
G|-5--------------------------------------------|
D|-5--3---7-7-5-5-------------------------------|
A|-3--3---7-7-5-5-------------------------------|
E|----1---5-5-3-3-------------------------------|


e|----------------------------------------------|
B|-13-13-10-10-8-8-6-10-10-8-8-6-6-5------------|
G|-12-12-10-10-9-9-7/10-10-9-9-7-7-5--5-4-5b7r5-|
D|----------------------------------------------|
A|----------------------------------------------|
E|----------------------------------------------|

e|----------------------------------------------|
B|-13-13-10-10-8-8-6-10-10-8-8-6-6-5------------|
G|-12-12-10-10-9-9-7/10-10-9-9-7-7-5--7b97-5h7p5|
D|----------------------------------------------|
A|----------------------------------------------|
E|----------------------------------------------|

Verse:

e|-----------------------------------------------|
B|-----------------------------------------------|
G|-55555-----------------------------------------|
D|-55555--77777----3--3--3--3--5--5--5--5--------| X 2
A|-33333--77777----------------------------------|
E|--------55555--1--1--1--1--3--3--3--3----------|

Pre Chorus:

e|---------------88-8-88-888---------------------|
B|---------------88-8-88-888---------------------|
G|---10----12----99-9-99-999---------------------| x 3
D|--10---12--------------------------------------|
A|-8---10----------------------------------------|
E|-----------------------------------------------|

e|-----------------------------------------------|
B|-----------------------------------------------|
G|--------7--------------------------------------|
D|--3*----7--5-----------------------------------|
A|--3-----5--5-----------------------------------|
E|--1--------3-----------------------------------|

Chorus:

e|-----------------------------------------------|
B|-----------------------------------------------|
G|-5555------------------------------------------| X 3
D|-5555--77--33----------------------------------|
A|-3333--77--33----------------------------------|
E|-------55--11----------------------------------|

e|-----------------------------------------------|
B|-----------------------------------------------|
G|--55-------------------------------------------|
D|--55--33---77-55-------------------------------|
A|--33--33---77-55-------------------------------|
E|------11---55-53-------------------------------|


e|----------------------------------------------|
B|-13-13-10-10-8-8-6-10-10-8-8-6-6-5--5-4-5b7r5-|
G|-12-12-10-10-9-9-7/10-10-9-9-7-7-5------------|
D|----------------------------------------------|
A|----------------------------------------------|
E|----------------------------------------------|

e|----------------------------------------------|
B|-13-13-10-10-8-8-6-10-10-8-8-6-6-5--7b97-5h7p5|
G|-12-12-10-10-9-9-7/10-10-9-9-7-7-5------------|
D|----------------------------------------------|
A|----------------------------------------------|
E|----------------------------------------------|

Verse

Pre Chorus

Chorus

Bridge:

e|----------------------------------------------|
B|----------------------------------------------|
G|-------------55555----------------------------|
D|---3-3--5-5--55553----------------------------| X 2
A|--3-3--5-5---33333----------------------------|
E|-1-1--3-3-------------------------------------|

e|--------------------------------------------------------------|
B|--------------------------------------------------------------|
G|-----------------------------------------------------5--------|
D|---3-3--5-5-----------------------33333333-55555555--5--------|
A|--3-3--5-5---3333-2222-0000-------33333333-55555555--3--------|
E|-1-1--3-3-------------------3333--11111111-33333333-----------|
 				    ........ ........
 				      P.M      P.M

Altered chorus: Not entirely sure about this but:

e|--8---8---10------------------------------------|
B|--8---10--12------------------------------------|
G|--9---10--12--X-3-----5555----------------------|
D|--10--10--12----------5555--3333--7777--5555----|
A|----------------------3333--3333--7777--5555----|
E|----------------------------1111--5555--3333----|

Chorus x 1

End:

e|------------------------------------------------|
B|------------------------------------------------|
G|------------------------5-----------------------|
D|--33333333--55555555----5-----------------------|
A|--33333333--55555555----3-----------------------|
E|--11111111--33333333----------------------------|
    ........  ........
       P.M       P.M


Long live ska. Peace.

By Disgruntled Duck.
Tap to rate this tab
# A B C D E F G H I J K L M N O P Q R S T U V W X Y Z