Song name
# A B C D E F G H I J K L M N O P Q R S T U V W X Y Z

Reel Big Fish - Thank You For Not Moshing tab

Reel Big Fish
Thank you for not moshing
nick arma tabbing this

well its not perfect i picked it up by ear and spent about 15 minutes on it maybe some 
else can use this and get it better then i did

TUNE IT HALF STEP even though it says standard tuning next to the tab
  intro
e------------------------------|
b------------------------------|
g------------------------------|
d---77---999--------66---------| x3
a---55---777---77---44---------|
E--------------55--------------|

 then you do this
e------------------------------|
b------------------------------|
g------------------------------|
d---44---77---99---------------|
a---22---55---77------7/-------|
E---------------------5/-------|

  Verse 1
upstrokes
e---55---33/---55---33/--------|
b---55---33/---55---33/--------|
g---66---44/---66---44/--------|
d---77---55/---77---55/--------|
a---77---55/---77---55/--------|
E------------------------------|


prechorus
"look our fag theres gonna be a fight"
       P.M   P.M
e------------------------------|
b------------------------------|
g------------------------------|
d---7-----9-----9--------------|
a---5---777---777--------------|
E------------------------------|


Chorus
upstrokes
e---55-------5555--|
b---55---7---5555--|
g---66---7---6666--|
d---77---7---7777--| x3
a---77---5---7777--|
E------------------|

then the "im gonna f*** up shit"

e------------------------------|
b------------------------------|
g------------------------------|
d---44---77---99---------------|
a---22---55---77------7/-------|
E---------------------5/-------|


after that you do the verse again
then the prechorus and chorus and you move on into the..bridge

play this during the horn solo
 upstrokes

e---5555---3333/---5555---3333/--------|
b---5555---3333/---5555---3333/--------|
g---6666---4444/---6666---4444/--------|
d---7777---5555/---7777---5555/--------| do this as many times as needed
a---7777---5555/---7777---5555/--------|
E--------------------------------------|


then you do this

e-----------------------------------------------|
b-----------------------------------------------|
g-----------------------------------------------|
d---99---77-------------------------------------|
a---77---55---55---7----------------------------|
E-------------33---5/-------------------17------|

then you play the verse and the other guitar is doing something..i dont really have time 
now to find it out but so far thats what i got my email is bsktcase821@aol.com if u 
email me
Tap to rate this tab
 
# A B C D E F G H I J K L M N O P Q R S T U V W X Y Z