Song name
# A B C D E F G H I J K L M N O P Q R S T U V W X Y Z

Reel Big Fish - The Fire tab

Help us improve GuitareTab! Take a short survey!
ummmmmmmmm
this is how i think it goes

intro x2
e---------------------------------|
B-----------------6---------------|
G-----------------6---------------|
D-----6--------4--6---------------|
A---6---6----4----4---------------|
E-4--------2----------------------|

e-----4--------2--1---------------|
B---4---4----2----2---------------|
G-5--------3------1---------------|
D---------------------------------|
A---------------------------------|
E---------------------------------|

verse1 x4
e-44-22--------44-22--------------|
B-44-22-66-----44-22-6------------|
G-55-33-66-----55-33-6------------|
D-66-44-66-----66-44-6------------|
A-66-44-44-----66-44-4------------|
E-44-22--------44-22--------------|

verse2 x4  (upbeat)
e-44-22-1-1-1-1-------------------|
B-44-22-2-2-2-2-------------------|
G-55-33-1-1-1-1-------------------|
D---------------------------------|
A---------------------------------|
E---------------------------------|

pre-chorus
e-------2222-1--------------------|
B----22-------2----22--5454542----|
G-33------------33----------------|
D---------------------------------|
A---------------------------------|
E---------------------------------|

chorus x4  (upbeat)
e--9-9--9--7-7--6-6--66-----------|
B--9-9--9--7-7--7-7--77-----------|
G-1010-10--8-8--6-6--66-----------|
D---------------------------------|
A---------------------------------|
E---------------------------------|

then:

verse1
verse2
prechorus
chorus
verse2 x2

x3
e---------------------------------|
B---------------------------------|
G---------------------------------|
D-2-2-32---5-5-54---6--8--4-------|
A-2-2---32-5-5---54-6--8--4-------|
E-1-1------3-3------4--6--2-------|

x5
e---------------------------------|
B---------------------------------|
G---------------------------------|
D---------------------------------|
A-43----21------------------------|
E----42----21-010-----------------|

chorus

meh.....
Related for The Fire tab