Song name
# A B C D E F G H I J K L M N O P Q R S T U V W X Y Z

Reel Big Fish - A Fond Adieu The End Of The Show tab

Help us improve GuitareTab! Take a short survey!
THE REALLY COOL INTRO TO SELLOUT


e|---------------------------------|
B|---------------------------------|
G|---------------------------------|
D|-------------------666-----8-6-5-|
A|---666-------8---4-----4-6-------|
E|-4-----4-6-6---------------------|

repeat many times


...Ab........Bbmin..Db......Eb...
e|---------------------------------|
B|-x-4-x-4-x-6-x-6-x-6-x-6-x-8-x-8-|
G|-x-5-x-5-x-6-x-6-x-6-x-6-x-8-x-8-|
D|-x-6-x-6-x-8-x-8-x-6-x-6-x-8-x-8-|
A|-x-6-x-6-x-8-x-8-x-4-x-4-x-6-x-6-|
E|---------------------------------|

there im done, enjoi, by

dont kill yourself
Related for A Fond Adieu The End Of The Show tab