Song name
# A B C D E F G H I J K L M N O P Q R S T U V W X Y Z

Reel Big Fish - Party Down tab

Yup, that's right. This is the single that's to be on the next album that isn't out 
July 4th, realeased on July 10th.) I'm tabbing this for you lucky ducks :)

ORDER:
Intro
Pre-Verse x 2
Verse x 2
Verse2 x 2
Pre-Chorus
Chorus
Ska Lick
Chorus
Disco Lick
Chorus End
Pre-Verse x 2
Verse x 2
Verse2 x 2
PreChorus
Chorus
Country Lick
Chorus
Reggae Lick
Chorus End
Bridge x 4
Bridge2
Pre-Chorus
Chorus
R And B Lick
Chorus
Heavy Metal Lick
Outro

Intro:

|-------------------------------------------------------------------|
|-------------------------------------------------------------------|
|-------------------7-7--6--7-7--------------------7-777-7777777----|
|-7-7---4-4---5-5---7-7--6--7-7--7-7---4-4---5-5---7-777-7777777----|
|-7-7---4-4---5-5---5-5--4--5-5--7-7---4-4---5-5---5-555-5555555----|
|-5-5---2-2---3-3----------------5-5---2-2---3-3--------------------|


Pre-Verse:

Guitar 1:
|--------------------------------|
|--------------------------------|
|------------------------------7-|
|-7-7---4-4---5-5---4-2-4-5--5-7-|
|-7-7---4-4---5-5---4-2-4-5--5-5-|
|-5-5---2-2---3-3---2-0-2-3--3---|

Guitar 2:
|-------------------------------------------------------|
|-------------------------------------------------------|
|-------------------------------------------------------|
|-------------------------------------------------------|
|4-0-4-0-4-0-4-0-5-0-5-0-5-0-5-0-------5~~~------------5|
|--------------------------------3-3-3-----2-0-2-3~~-3--|
Thanks to witeboy247 for the fix

Verse:

|-------------------------------|
|-------------------------------|
|-------------------7-7--6--7-7-|
|-7-7---4-4---5-5---7-7--6--7-7-|
|-7-7---4-4---5-5---5-5--4--5-5-|
|-5-5---2-2---3-3---------------|

Verse2:

|-----------------------------------------------------|
|-----------------------------------------------------|
|-----------------------------------------------------|
|-----------------------------------------------------|
|4-0-4-0-4-0-4-0-5-0-5-0-5-0-5-0-------5~~~-----------|
|--------------------------------3-3-3-----2-0-2-3~~~-|

Pre-Chorus

|------------------------------------------5---5---7---7---|
|--------------------------------------------5---5---7---7-|
|-4-4--4-4--6-----6h7h6-----4-4--4-4--6~~~~----------------|
|-4-4--4-4--6--7~~-------7--4-4--4-4--6~~~~----------------|
|-2-2--2-2--4--7~~----------2-2--2-2--4~~~~----------------|
|--------------5~~-----------------------------------------|

Chorus

|------------------------------------|
|------------------------------------|
|-------------------------7--7--7--7-|
|-7--7--7--7--4--4--4--4--7--7--7--7-|
|-7--7--7--7--4--4--4--4--5--5--5--5-|
|-5--5--5--5--2--2--2--2-------------|

Ska Lick:
(Upstrokes)

|-7x-7-7x-7-7x-7-7x-7-|
|-7x-7-7x-7-7x-7-7x-7-|
|-7x-7-7x-7-7x-7-7x-7-|
|-7x-7-7x-7-7x-7-7x-7-|
|---------------------|
|---------------------|

Disco Lick:
(Upstrokes, With Wah Wah distortion)

|-7x-7x-777-7x-7x-7x-777-7x|
|-7x-7x-777-7x-7x-7x-777-7x|
|-7x-7x-777-7x-7x-7x-777-7x|
|-7x-7x-777-7x-7x-7x-777-7x|
|--------------------------|
|--------------------------|

Chorus End

|---------------------------------------------------------------------------|
|---------------------------------------------------------------------------|
|----------------------4--4--4--4--4--7--7--7--7----------------------7-777-|
|-7--7--7--7--4--4--4--4--4--4--4--4--7--7--7--7----7-7---4-4---5-5---7-777-|
|-7--7--7--7--4--4--4--4--2--2--2--2--5--5--5--5----7-7---4-4---5-5---5-555-|
|-5--5--5--5--2--2--2--2----------------------------5-5---2-2---3-3---------|

 ---------|
 -7777777-|
 -7777777-|
 -5555555-|
 ---------|
 ---------|

Country Lick:

|--------9-----------------|
|-6/7------9-6/7-6/7-7-5---|
|------------------------7-|
|--------------------------|
|--------------------------|
|--------------------------|

Reggae Lick:
(Upstrokes)

|-7--7--7--7-|
|-7--7--7--7-|
|-7--7--7--7-|
|-7--7--7--7-|
|------------|
|------------|

Bridge:

|-------------------------------|
|-------------------------------|
|-------------------------------|
|-3-3-333-2-3---5-5-555-2-5-7~~~|
|-3-3-333-2-3---5-5-555-2-5-7~~~|
|-1-1-222-0-1---3-3-333-0-3-5~~~|

Bridge2:

|---------------------------------------------------------------------------|
|---------------------------------------------------------------------------|
|-7-7-7-7-------------------------1-2-3-4-2~~~~~----------------------------|
|-7-7-7-7-5-5-5-5-3-3-3-3-2-2-------------------77---55---44-4/12\33-22-77--|
|-5-5-5-5-5-5-5-5-3-3-3-3-2-2-------------------77---55---44-4/12\33-22-77--|
|---------3-3-3-3-1-1-1-1-0-0-------------------55---33---22-2/10\11-00-55--|

 ---------------------------------------------------------------------------|
 ---------------------------------------------------------------------------|
 ---------------------------------------------------------------------------|
 -55---44-4/12\33-22--7-7-7-7-5-5-5-5-4-4-4-4-3-3-2-2-7-7-7-7-5-5-5-5-4-4-4-|
 -55---44-4/12\33-22--7-7-7-7-5-5-5-5-4-4-4-4-3-3-2-2-7-7-7-7-5-5-5-5-4-4-4-|
 -33---22-2/10\11-00--5-5-5-5-3-3-3-3-2-2-2-2-1-1-0-0-5-5-5-5-3-3-3-3-2-2-2-|

 ----------|
 ----------|
 ----------|
 4-3-3-2-2-|
 4-3-3-2-2-|
 2-1-1-0-0-|

R & B Lick:

|-22~~23~~22~23~22~~17~~15~14~~~|
|-------------------------------|
|-------------------------------|
|-------------------------------|
|-------------------------------|
|-------------------------------|

Heavy Metal Lick:

|------------------------|
|------------------------|
|------------------------|
|-2--5--2--7--2--5--2--7-|
|-2--5--2--7--2--5--2--7-|
|-0--3--0--5--0--3--0--5-|

Outro:

|------------------------------------------------------------------------|
|------------------------------------------------------------------------|
|----------------------4--4--4--4--4--7--7--7--7-7-7-7-7-7-7-7-7-7-7-7-7-|
|-7--7--7--7--4--4--4--4--4--4--4--4--7--7--7--7-7-7-7-7-7-7-7-7-7-7-7-7-|
|-7--7--7--7--4--4--4--4--2--2--2--2--5--5--5--5-5-5-5-5-5-5-5-5-5-5-5-5-|
|-5--5--5--5--2--2--2--2-------------------------------------------------|
Tap to rate this tab
# A B C D E F G H I J K L M N O P Q R S T U V W X Y Z