Song name
# A B C D E F G H I J K L M N O P Q R S T U V W X Y Z

Reel Big Fish - The New Version Of You tab

Intro

Guitar 1
|----------------|
|----------------|
|------10-9------|(X4)
|-55-7-10-9-10-9-|
|-55-7-8--7-10-9-|
|-33-5------8--7-|

Guitar 2
|--------13-12--------|    |--------|
|-88-10~-------13-12~-|    |--------|
|---------------------|(X4)|--------|
|---------------------|then|--------|
|---------------------|    |--------|
|---------------------|    |-0-3-5/-|

Verse
|-55-5-5-5--5-5-5-55--33-3-3-3--5-5-5-55-|
|-55-5-5-5--7-7-7-77--33-3-3-3--7-7-7-77-|
|-66-6-6-6--7-7-7-77--44-4-4-4--7-7-7-77-|(X7)
|-77-7-7-7--7-7-7-77--55-5-5-5--7-7-7-77-|
|----------------------------------------|
|----------------------------------------|

Pre-Chorus
|------------------------------------------------------------------------|
|------------------------------------------------------------------------|
|-44444444----------------------------44444444---------------------------|
|-44444444-55555555-7777777777777777--44444444-55555555-2222222222222222-|
|-22222222-55555555-7777777777777777--22222222-55555555-2222222222222222-|
|----------33333333-5555555555555555-----------33333333-0000000000000000-|

Chorus
|-5-5-5-5--5-5--7-7-|    |------------------------------|
|-5-5-5-5--7-7--9-9-|    |------------------------------|
|-6-6-6-6--7-7--9-9-|(X4)|------------------------------|
|-7-7-7-7--7-7--9-9-|then|-77777777-44444444-33-3-3-3-2-|
|-------------------|    |-77777777-44444444-33-3-3-3-2-|
|-------------------|    |-55555555-22222222-11-1-1-1-0-|
                                             ** *

Verse(X7)
Pre-Chorus
Chorus
Intro

Bridge
All palm-muted
|--------------------|
|--------------------|
|--------------------|(X4)
|-4444-5555-77777777-|
|-4444-5555-77777777-|
|-2222-3333-55555555-|
Slowly release palm-mute last time

Pre-chorus-play all the way through then:
|------------------|
|------------------|
|-9999999999999999-|
|-9999999999999999-|
|-7777777777777777-|
|------------------|

Chorus

Another Chorus
|--------------------|    |------------------------------|
|--------------------|    |------------------------------|
|----------7777-9999-|(x4)|------------------------------|
|-77777777-7777-9999-|then|-77777777-44444444-33-3-3-3-2-|
|-77777777-5555-7777-|    |-77777777-44444444-33-3-3-3-2-|
|-55555555-----------|    |-55555555-22222222-11-1-1-1-0-|
                                              ** *

Then play intro once

* palm-mute
/ slide down
Tap to rate this tab
# A B C D E F G H I J K L M N O P Q R S T U V W X Y Z