Song name
# A B C D E F G H I J K L M N O P Q R S T U V W X Y Z

Reel Big Fish - Will The Revolution Come tab

Intro:
e|---------------------------------------------|
B|---------------------------------------------|
G|------14---11--9b10b9------------------------|
D|--9------14----9b10b9--------2-2-x-2-4-4-x-4-|
A|--9-------------------12-----2-2-x-2-4-4-x-4-|
E|--7--------------------------0-0-x-0-2-2-x-2-|

Verse:
e|-------------------|
B|--x-7-x-7-x-9-x-9--|
G|--x-8-x-8-x-9-x-9--|
D|--x-9-x-9-x-x-x-9--|
A|-------------------|
E|-------------------|

Chorus:
(play each four times)
e|---------------|
B|---------------|
G|---------------|
D|---------------|
A|--9-9-6-5-2-4--|
E|--7-6-4-3-0-2--|

Then it gets fast

Fast Verse:
e|---------------------------------|
B|---------------------------------|
G|---------------------------------|
D|--4-4-4-4-4----------------------|
A|--2-2-2-2-2-4-4-2-2-2-2-2-2-2-2--|
E|------------2-2-0-0-0-0-0-0-0-0--|

Fast Chorus:
(play each eight times)
e|---------------|
B|---------------|
G|---------------|
D|---------------|
A|--9-9-6-5-2-4--|
E|--7-6-4-3-0-2--|

that's it!
Tap to rate this tab
# A B C D E F G H I J K L M N O P Q R S T U V W X Y Z