Song name
# A B C D E F G H I J K L M N O P Q R S T U V W X Y Z

Reel Big Fish - Til I Hit The Ground tab

-------------------------------------------------------|
                Till I Hit The Ground - Reel Big Fish -|
Tabbed by: mike t
Email:mtred@comcast.net
          Timing's not right, i know, i apologize. just listen to the song to figure it out, pretty simple.
Tuning:EADGBe

| /  slide up
| \  slide down
| h  hammer-on
| p  pull-off
| ~  vibrato
| +  harmonic
| x  Mute note
                         the whole song is played clean
Intro
e|--x-7777-10h8h7------------------------------------------------------------|
B|--x-8888--------8----------------------------------------------------------|
G|--x-7777----------7--9--9-7---7-5h4--x-44444455-4---x-44444455-4-----------|x2
D|----------------------10-----------5-x------------7-x------------7---------|
A|-------------------------------------x--------------x----------------------|
E|---------------------------------------------------------------------------|
  Chorus
e|---------------------------------------------------------------------------|
B|---------------------------------------------------------------------------|
G|-----4-7-7-5-4------4-5-5-4------------------------------------------------|x6
D|-5--5----------7--7---------7----------------------------------------------|
A|---------------------------------------------------------------------------|
E|---------------------------------------------------------------------------|
  then
e|---------------------------------------------------------------------------|
B|--8-8888-10-8-8------------------------------------------------------------|
G|---------------------------------------------------------------------------|
D|---------------------------------------------------------------------------|
A|---------------------------------------------------------------------------|
E|---------------------------------------------------------------------------|
  then the beginning of the verses
e|---------------------------------------------------------------------------|
B|---------------------------------------------------------------------------|
G|---------------------------------------------------------------------------|
D|---------------------------------------------------------------------------|
A|------2--3-3-2-0------2--3-3----------2--3-3-2-0---------------------------|
E|-3--3------------3--3--------2---3--3------------3-------------------------|
    Verse
e|---------------------------------------------------------------------------|
B|---------------------------------------------------------------------------|
G|---------------------------------------------------------------------------|x2
D|---------------------------------------------------------------------------|
A|------2--3-3-2-0------2--3-3----------2--3-3-2-0------2--3-3---------------|
E|-3--3------------3--3--------2---3--3------------3--3--------2-------------|
   I know this probably isn't the way it's played, but this works and sounds good all 
same. this is the part right before the chorus.
e|-----------3------5----------------------------------------------------------|
B|-----------------------------------------------------------------------------|
G|--------------------5--------------------------------------------------------|
D|--------5----5--7-----7------------------------------------------------------|
A|-----------------------------------------------------------------------------|
E|-3-3-3-----------------------------------------------------------------------|
   Chorus
e|---------------------------------------------------------------------------|
B|---------------------------------------------------------------------------|
G|-----4-7-7-5-4------4-5-5-4------------------------------------------------|x4
D|-5--5----------7--7---------7----------------------------------------------|
A|---------------------------------------------------------------------------|
E|---------------------------------------------------------------------------|

e|---------------------------------------------------------------------------|
B|--8-8888-10-8-8------------------------------------------------------------|
G|---------------------------------------------------------------------------|
D|---------------------------------------------------------------------------|
A|---------------------------------------------------------------------------|
E|---------------------------------------------------------------------------|

e|---------------------------------------------------------------------------|
B|---------------------------------------------------------------------------|
G|---------------------------------------------------------------------------|
D|---------------------------------------------------------------------------|
A|------2--3-3-2-0------2--3-3----------2--3-3-2-0---------------------------|
E|-3--3------------3--3--------2---3--3------------3-------------------------|

   Verse
e|-------------------------------------------------------------------------------|
B|-------------------------------------------------------------------------------|
G|-------------------------------------------------------------------------------|x2
D|-------------------------------------------------------------------------------|
A|------2--3-3-2-0------2--3-3----------2--3-3-2-0------2--3-3-------------------|
E|-3--3------------3--3--------2---3--3------------3--3--------2-----------------|
e|-----------3------5------------------------------------------------------------|
B|-------------------------------------------------------------------------------|
G|--------------------5----------------------------------------------------------|
D|--------5----5--7-----7--------------------------------------------------------|
A|-------------------------------------------------------------------------------|
E|-3-3-3-------------------------------------------------------------------------|
   Chorus
e|---------------------------------------------------------------------------|
B|---------------------------------------------------------------------------|
G|-----4-7-7-5-4------4-5-5-4------------------------------------------------|x4
D|-5--5----------7--7---------7----------------------------------------------|
A|---------------------------------------------------------------------------|
E|---------------------------------------------------------------------------|
  Back to the intro
e|--x-7777-10h8h7------------------------------------------------------------|
B|--x-8888--------8----------------------------------------------------------|
G|--x-7777----------7--9--9-7---7-5h4--x-44444455-4---x-44444455-4-----------|x2
D|----------------------10-----------5-x------------7-x------------7---------|
A|-------------------------------------x--------------x----------------------|
E|---------------------------------------------------------------------------|
 Break for 8 beats

   Chorus
e|---------------------------------------------------------------------------|
B|---------------------------------------------------------------------------|
G|-----4-7-7-5-4------4-5-5-4------------------------------------------------|x4
D|-5--5----------7--7---------7----------------------------------------------|
A|---------------------------------------------------------------------------|
E|---------------------------------------------------------------------------|

e|---------------------------------------------------------------------------|
B|--8-8888-10-8-8------------------------------------------------------------|
G|---------------------------------------------------------------------------|
D|---------------------------------------------------------------------------|
A|---------------------------------------------------------------------------|
E|---------------------------------------------------------------------------|

e|---------------------------------------------------------------------------|
B|---------------------------------------------------------------------------|
G|---------------------------------------------------------------------------|
D|---------------------------------------------------------------------------|
A|------2--3-3-2-0------2--3-3----------2--3-3-2-0---------------------------|
E|-3--3------------3--3--------2---3--3------------3-------------------------|
   Verse
e|----------------------------------------------------------------|
B|----------------------------------------------------------------|
G|----------------------------------------------------------------|x2
D|----------------------------------------------------------------|
A|------2--3-3-2-0------2--3-3----------2--3-3-2-0------2--3-3----|
E|-3--3------------3--3--------2---3--3------------3--3--------2--|       Chorus
e|----------------------------------------------------------------|
B|----------------------------------------------------------------|
G|-----4-7-7-5-4------4-5-5-4-------------------------------------|x4
D|-5--5----------7--7---------7-----------------------------------|
A|----------------------------------------------------------------|
E|----------------------------------------------------------------|

e|---------------------------------------------------------------------------|
B|---------------------------------------------------------------------------|
G|--------9-12-12-10-9--------9-10-10-9------------9-12-12-10-9--------9-10--|
D|-10--10--------------12--12-----------12--10--10--------------12--12-------|
A|---------------------------------------------------------------------------|
E|---------------------------------------------------------------------------|
  Pause
e|---------------------------------------------------------------------------|
B|---------------------------------------------------------------------------|
G|--------11-14-14-11-10--------11-12-12-11----------------------------------|x2
D|-12--12----------------14--14-------------14-12----------------------------|
A|---------------------------------------------------------------------------|
E|---------------------------------------------------------------------------|
  Pause                    (Only once this time)
e|---------------------------------------------------------------------------|
B|---------------------------------------------------------------------------|
G|--------11-14-14-11-10--------11-12-12-11----------------------------------|
D|-12--12----------------14--14-------------14-12----------------------------|
A|---------------------------------------------------------------------------|
E|---------------------------------------------------------------------------|
  Pause                          (Only once)
e|---------------------------------------------------------------------------|
B|---------------------------------------------------------------------------|
G|--------9-12-12-10-9--------9-10-10-9--------------------------------------|
D|-10--10--------------12--12-----------12--10-------------------------------|
A|---------------------------------------------------------------------------|
E|---------------------------------------------------------------------------|
  Pause                        (Only Once)
e|---------------------------------------------------------------------------|
B|---------------------------------------------------------------------------|
G|-----4-7-7-5-4------4-5-5-4------------------------------------------------|
D|-5--5----------7--7---------7-5--------------------------------------------|
A|---------------------------------------------------------------------------|
E|---------------------------------------------------------------------------|
  Pause                       closing notes
e|-------------------------------------------------------------------------------|
B|-------------------------------------------------------------------------------|
G|-------------------------------------------------------------------------------|
D|--4--5-------------------------------------------------------------------------|
A|--4--5-------------------------------------------------------------------------|
E|--2--3-------------------------------------------------------------------------|


   Ok so there you go, Til I Hit The Ground. First time tab for me, hope it helps you. 
intro's a bit tricky, but keep working on it and you'll have it  in no time. email at 
with some feedback or complaints if it was that bad, which i hope it wasn't. K!
=====================================
Tap to rate this tab
# A B C D E F G H I J K L M N O P Q R S T U V W X Y Z