Song name
# A B C D E F G H I J K L M N O P Q R S T U V W X Y Z

Reel Big Fish - Another Fu Song tab

Make sure to listen to the song for timing!!!

Intro:
Hey kids, it's time to use the F word!
e|-4~-----------------------------------------------------------------------|
B|-4~-----------------------------------------------------------------------|
G|-5~-----------------------------------------------------------------------|
D|-6~-----------------------------------------------------------------------|
A|-6~-----------------------------------------------------------------------|
E|-4~-----------------------------------------------------------------------|

Verse:
e|--------------------------------------------------------------------------|
B|--------------------------------------------------------------------------|
G|---------------------66-666-6--88-888-8-----------------------------------|
D|-66-666-6--33-333-3--66-666-6--88-888-8-----------------------------------|
A|-66-666-6--33-333-3--44-444-4--66-666-6-----------------------------------|
E|-44-444-4--11-111-1-------------------------------------------------------|

Chorus: (Use upstrokes to get the ska rhythm)
e|-444444-------------------------------------------------------------------|
B|-444444--6666--88888------------------------------------------------------|
G|-555555--6666--88888------------------------------------------------------|
D|-666666--6666--88888------------------------------------------------------|
A|-666666--4444--66666------------------------------------------------------|
E|-444444-------------------------------------------------------------------|

Bridge: (Directly after chorus)
e|---------------------------------------------------------------------------|
B|---------------------------------------------------------------------------|
G|-666-888-------------------------------------------------------------------|
D|-666-888--------6~---------------------------------------------------------|
A|-444-666--x3----6~---------------------------------------------------------|
E|----------------4~---------------------------------------------------------|

Song order:
Intro
Verse x2
Chorus x2
Bridge
Verse x2
Chorus x2
Bridge

there ya have it. im 97% sure this is correct but im not sure of the part where he 
says f*** you, so your on your own on that. enjoy and please rate well and have mercy, this 
my first tab.
Tap to rate this tab
# A B C D E F G H I J K L M N O P Q R S T U V W X Y Z