Song name
# A B C D E F G H I J K L M N O P Q R S T U V W X Y Z

Reel Big Fish - Sr Live tab

Help us improve GuitareTab! Take a short survey!
Ok this is the live version[s] of S.R. by Reel Big Fish. If you have `Our Live Album Is
Than Your Live Album` or you have any of their DVD's or you've seen them live then
pretty much know the versions. I've worked them out using the DVD of them at the House 
Blues (except the country one), so you can use that for timings etc. Also only the original
the punk rock one cover all parts of the song, the others just do half of it.

Artist: Reel Big Fish
Tabbed by: Duncan S./reelbigfish432

Tab Legend:
slide up=/
slide down=\
hammer on=h
pull off=p
bend=b
return bend=r
held bend=hb
mute string=x
natural harmonic=nh
palm mute=pm and .
vibrato=~

Original

Intro/Verse:
E|------------------|
B|-x-7-7--x-9/11-11-|
G|-x-8-8--x-9/11-11-|x8 for intro
D|-x-9-9--x-9/11-11-|x8 for first half of verse
A|-x-9-9--x-7--9--9-|
E|------------------|

After the first half of the verse theres just singing for 2 bars then theres

E|------------|
B|-7-7--9--11-|
G|-8-8--9--11-|
D|-9-9--9--11-|x3
A|-9-9--7---9-|
E|------------|

then just before the chorus:
E|------------------|
B|-x-7-7--x-9/11-11-|
G|-x-8-8--x-9/11-11-|
D|-x-9-9--x-9/11-11-|
A|-x-9-9--x-7--9--9-|
E|------------------|

Chorus:
E|--------------------|
B|--------------------|
G|-4-4----------------|
D|-4-4--4-4--2-2--4-4-|x2
A|-2-2--4-4--2-2--4-4-|
E|------2-2--0-0--2-2-|

E|-------------|
B|-------------|
G|-4-4---------|
D|-4-4--4-4--2-|
A|-2-2--4-4--2-|
E|------2-2--0-|

then rest for a bar and a bit, then do the first half of the verse once then this:
      pm---    ----------|
E|-----------------------|
B|-----------------------|
G|-----------------------|
D|-----------------------|
A|-/10--9-9-6--6-4-4-----|
E|-------------------7---|
     .  . .    . . .


Punk Rock Version:

Intro:
E|--------------------|
B|--------------------|
G|---------9-9--11-11-|
D|-9-9--9--9-9--11-11-|x8
A|-9-9--9--7-7---9--9-|
E|-7-7--7-------------|

Verse:
pm----------------|
E|----------------|
B|----------------|
G|------99-1111---|
D|-9999-99-1111---|x4
A|-9999-77--9-9---|
E|-7777-----------|

      pm-    -    --
E|-------------------|
B|-------------------|
G|---------9-9--1111-|
D|-9-9--9--9-9--1111-|x4
A|-9-9--9--7-7---9-9-|
E|-7-7--7------------|
        .    .     .

Pre-Chorus:
E|---------------|
B|---------------|
G|---------------|
D|-9----9----9-9-|
A|-9----9----9-9-|
E|-7----7----7-7-|

then intro riff twice then
E|-----x-/----\-|
B|-----x-/----\-|
G|-----x-/----\-|
D|-9-9-x-/----\-|
A|-9-9---/----\-|
E|-7-7---/----\-|

Chorus:
(slower tempo)
pm---------   --------------|
E|--------------------------|
B|--------------------------|
G|---------------------11---|
D|---------9--9-9-9-9--11---|
A|-9-9-9-9-9--7-7-7-7---9---|
E|-7-7-7-7-7----------------|
   . . . .    . . . .

   -------   -----    -------------|
E|---------------------------------|
B|---------------------------------|
G|------------------9-9-9-9--11~---|
D|-9-9-9-9-9-9-9-9-----------------|x4
A|---------------------------------|
E|---------------------------------|
   . . . .   . . .    . . .

then intro riff 4 times, start of pre-chorus once then:
E|------------------------|
B|------------------------|
G|---------9-9--11-11-----|
D|-9-9--9--9-9--11-11--9\-|
A|-9-9--9--7-7---9--9--9\-|
E|-7-7--7--------------7\-|


Blues Version

Intro:
E|------------------------------------------|
B|------------------------------------------|
G|------------------------------------------|
D|----------------------9-9-11-9--11-11-13\-|
A|-9-9-11-11-9-9-11-11--7-7--7-7---9--9--9\-|
E|-7-7--7--7-7-7--7--7----------------------|

Pre-Verse Solo:
note: its hard to hear the end of it so i just guestimated it
E|---------------------------------------------|
B|-12-12-12-12-12-12---------------------------|
G|-11-11-11-11-11-11-11-9----9-9-9-9b10r-9-----|
D|------------------------12-------------12----|
A|---------------------------------------0-----|
E|---------------------------------------------|

note:after the first 15 the next set of bends is slower
E|------------------------------------------------|
B|-------12-12-------12-15-------12--15b17-15b17~-|
G|-14b16-------14b16-------14b16------------------|
D|------------------------------------------------|
A|------------------------------------------------|
E|------------------------------------------------|

this bit is played fast
E|-------12--------------------------|
B|-15b17----15b17r-12----------------|
G|--------------------14-14b16----16-|
D|-----------------------------16----|
A|-----------------------------------|
E|-----------------------------------|

Verse:
pm-------------------------------------------|
E|-------------------------------------------|
B|-------------------------------------------|
G|-------------------------------------------|
D|----------------------9-9-11-9--11-11-13---|
A|-9-9-11-11-9-9-11-11--7-7--7-7---9--9--9---|
E|-7-7--7--7-7-7--7--7-----------------------|
   . .  .  . . .  .  .  . .  . .   .  .  .
pm------------------------------------------------|
E|------------------------------------------------|
B|---------------------10b12-10-7-10p7------------|
G|-------------------------------------9b10-7-----|
D|--------------------------------------------9---|
A|-9-9-11-11-9-9-11-11----------------------------|
E|-7-7--7--7-7-7--7--7----------------------------|
   . .  .  . . .  .  .

pm-------------------------------------------|
E|-------------------------------------------|
B|-------------------------------------------|
G|-------------------------------------------|
D|----------------------9-9-11-9--11-11-13---|x2
A|-9-9-11-11-9-9-11-11--7-7--7-7---9--9--9---|
E|-7-7--7--7-7-7--7--7-----------------------|
   . .  .  . . .  .  .  . .  . .   .  .  .


Disco Version

Intro:
E|------------------------------|
B|------------------------------|
G|---------------9--9---11---11-|
D|--9--9--9--9------------------|
A|--------------7--7---9----9---|
E|-7--7--7--7-------------------|

played with wah and flanger
E|---------------------------------|
B|-7-7-x-x-7-7-x-x-7-7-x-x-7-7-x-x-|
G|-8-8-x-x-8-8-x-x-8-8-x-x-8-8-x-x-|
D|-9-9-x-x-9-9-x-x-9-9-x-x-9-9-x-x-|
A|-9-9-x-x-9-9-x-x-9-9-x-x-9-9-x-x-|
E|---------------------------------|

E|-------------------------------------|
B|-9-9-x-x-9-9-x-x-11-11-x-x-11-11-x-x-|
G|-9-9-x-x-9-9-x-x-11-11-x-x-11-11-x-x-|
D|-9-9-x-x-9-9-x-x-11-11-x-x-11-11-x-x-|x2
A|-7-7-x-x-7-7-x-x--9--9-x-x--9--9-x-x-|
E|-------------------------------------|

then the rest of the version is just this played with flanger
E|-7-7-x-x-7-7-x-x-7-7-x-x-7-7-x-x-|
B|-4-4-x-x-4-4-x-x-4-4-x-x-4-4-x-x-|
G|-4-4-x-x-4-4-x-x-4-4-x-x-4-4-x-x-|
D|-4-4-x-x-4-4-x-x-4-4-x-x-4-4-x-x-|x32 i think
A|-6-6-x-x-6-6-x-x-6-6-x-x-6-6-x-x-|
E|---------------------------------|


Death Metal Version

this is the one im unsure about because of the heavy distortion but i think i got it 
about

Intro:
note: the last three on 0 are with the bass drum
E|----------------------------------------|
B|----------------------------------------|
G|----------------------------------------|
D|-0h2-0h3-0h2-0h3-0h2-0h3-4-3-2-0--0-0-0-|x2
A|-0h2-0h3-0h2-0h3-0h2-0h3-4-3-2-0--0-0-0-|
E|-0h2-0h3-0h2-0h3-0h2-0h3-4-3-2-0--0-0-0-|

Verse:
E|---------|
B|---------|
G|---------|
D|-0h3-0h4-|x16 i think
A|-0h3-0h4-|
E|-0h3-0h4-|

Outro:
E|-----------------|
B|-----------------|
G|-----------------|
D|-0h2-0-3-4-3-0h2-|x2
A|-0h2-0-3-4-3-0h2-|
E|-0h2-0-3-4-3-0h2-|

with the bass drum
E|---------|
B|---------|
G|---------|
D|-0-0-0-0-|
A|-0-0-0-0-|
E|-0-0-0-0-|


Ballady Version

Intro:
E|-----------------------------------|
B|-----------------------------------|
G|---------------------11---------13-|
D|----11-----11------9----9----11----|
A|-------9------7--7---------9-------|
E|-7-------7-------------------------|

E|------------------------------------|
B|------------------------------------|
G|----------------------11---------13-|
D|-----11-------11----9----9----11----|
A|---9----9---9-----7---------9-------|
E|-7--------7-------------------------|

E|---------------------------|
B|---------------------------|
G|--------------11--------13-|
D|-------11---9----9---11----|
A|-----9----7--------9-------|
E|-8\7-----------------------|

E|------------------------------------|
B|------------------------------------|
G|----------------------11---------13-|
D|-----11-----11------9----9----11----|
A|---9----9------9--7---------9-------|
E|-7--------7-------------------------|

Verse, clean part:
E|-------------------------------------|
B|-------------------------------------|
G|--------------------11-11------13-13-|
D|-----11-----11-------9--9------11-11-|x2
A|---9----9------9--7-------7--9-------|
E|-7--------7--------------------------|

E|-----------------------------|
B|-----------------------------|
G|---11-11----11-11------13-13-|
D|----9--9-----9--9------11-11-|
A|----------7-------7--9-------|
E|-7---------------------------|

release pm gradually from the 9 on A
pm----------------------------------------|
E|----------------------------------------|
B|----------------------------------------|
G|------------------11-11------13-13-13---|
D|---11-11-11-11-----9--9------11-11-11---|
A|----9--9--9--9--7-------7--9------------|
E|-7--------------------------------------|
   .  .  .  .  .  .  .  . .  .

Verse, distorted part:

natural harmonics on 3rd frets with string mute
E|------------------------|
B|------------------------|
G|-4~---------------------|
D|-4~--4---6-4-2--x-x-x-x-|
A|-2~--2----------x-x-x-x-|
E|-------0--------x-x-x-x-|

E|--------------------|
B|--------------------|
G|-4~-----------------|
D|-4~-/----\----------|
A|-2~-/----\--4/6\4\2-|
E|----/----\----------|

E|-----------------------------------------------|
B|-----------------------------------------------|
G|-4~--------------------------------------------|
D|-4~-x-x-x--2-1---4~----------------------------|
A|-2~-x-x-x------4-----4/6\4\2--4/6\4\2--4/6\4\2-|
E|----x-x-x--------------------------------------|

Country Version

Intro:
E|-------------6h7---6h7---6h7---6h7---6h7---6h7---6h7---6h7-|
B|-4--5--7--6h7---6h7---6h7---6h7---6h7---6h7---6h7---6h7----|
G|-4--4--4---------------------------------------------------|
D|-----------------------------------------------------------|x2
A|-----------------------------------------------------------|
E|-----------------------------------------------------------|

Verse:
strum fast
E|---------------------------------------|
B|-7-7-7-7-7-7-7-7--9-9-9-9--11-11-11-11-|
G|-8-8-8-8-8-8-8-8--9-9-9-9--11-11-11-11-|
D|-9-9-9-9-9-9-9-9--9-9-9-9--11-11-11-11-|
A|-9-9-9-9-9-9-9-9--7-7-7-7---9--9--9--9-|
E|---------------------------------------|

Solo at the end of the verse
E|-10p7------------10p7-------------|
B|------10p7------------10p7--------|
G|-----------9p7~------------9p7----|
D|-------------------------------9~-|
A|----------------------------------|
E|----------------------------------|

Any improvements or comments are welcome, enjoy!
Related for Sr Live tab