Song name
# A B C D E F G H I J K L M N O P Q R S T U V W X Y Z

Reel Big Fish - 90s tab

-------------------------------------------------------------------------------
			     The 90's - Reel Big Fish
-------------------------------------------------------------------------------
Tabbed by: PhilFerret
Email:

Tuning: standard

This song was performed just before She Has a Girlfriend Now on "Our Live Album is 
Than Your Live Album". Basically, it's the chords to She Has A Girlfriend Now, but played 
It's easy and fun to play. Just use the barre chords I say and you'll have it in no time.

    Eb              C               Ab           Bb

e|----------8--------------5--------------4-------------6------------------|
B|----------8--------------5--------------4-------------6------------------|
G|-------8--8-----------5--5--------------5-------------7------------------|
D|-----8--------------5-----------------6-------------8--------------------|
A|---6-----------5--3-----------------6-------------8--------5-------------|
E|-------------------------------3--4----------5--6------------------------|

after that 5, go straight back to the start
repeat that a few times, and you're sorted
Tap to rate this tab
# A B C D E F G H I J K L M N O P Q R S T U V W X Y Z