Song name
# A B C D E F G H I J K L M N O P Q R S T U V W X Y Z

Reel Big Fish - So Much For Rock And Roll tab

-------------------------------------------------------------------------------
                 So Much For Rock And Roll - Reel Big Fish
-------------------------------------------------------------------------------
Tabbed by: Murray Urquhart
Email: muzztheguitarman@hotmail.co.uk

Tuning: Standard


Intro: (Chords are played with a ska rhythm and single notes with distortion)


Part 1:
e|--------------------------------------------|
B|-8888----------------8888-------------------|
G|-8888----------------8888-----5---5---------|
D|-8888-----6-5-6-8----8888-------6---8-------|  x2
A|-6666----------------6666-------------------|
E|--------------------------------------------|

Part2:
   Eb       Eb/D     Cm       G#   Bb
e|-----------------------------------------|
B|-88888888-88888888-44444444-4444-6666----|
G|-88888888-88888888-55555555-5555-7777----|
D|-88888888-88888888-55555555-6666-8888----| x2
A|-66666666-55555555-33333333-6666-8888----|
E|----------------------------4444-6666----|

Verse(Distorted: (x underneath marks palm muting)
   Eb               Cm   G# Bb
e|-------------------------------|
B|-8888888888888888-4444-44-66---|
G|-8888888888888888-5555-55-77---|
D|-8888888888888888-5555-66-88---|
A|-6666666666666666-3333-66-88---|
E|-----------------------44-66---|
   xxxxxxxxxxxxxxxx

Prechorus (Distorted):
   G#   Bb   G#   Bb   G#       Bb
e|------------------------------------------|
B|------------------------------------------|
G|------------------------------------------|
D|-6666-8888-6666-8888-66666666-88888888----|
A|-6666-8888-6666-8888-66666666-88888888----|
E|-4444-6666-4444-6666-44444444-66666666----|
                       xxxxxxxx xxxxxxxx

Chorus (ska upstrokes):
   Eb Eb/D Cm  G#  Bb            Eb Eb/D Cm
e|-----------------------------------------------------------|
B|-8-8-8-8-4-4-4-4-6-6-|---------8-8-8-8-4-4-----------------|
G|-8-8-8-8-5-5-5-5-7-7 |---------8-8-8-8-5-5-----------------|
D|-8-8-8-8-5-5-6-6-8-8-|-x2-then-8-8-8-8-5-5-----------------|
A|-6-6-5-5-3-3-6-6-8-8-|---------6-6-5-5-3-3-----------------|
E|-------------4-4-6-6-|---------------------4-3----1---3-4--|

Repeat Intro Part 2, Verse, Prechorus, chorus, Intro Part 1. then-

Interude (Distorted):


e|-----------------------------------------|
B|-----------------------------------------|
G|-8-88------------8-88--------------------|
D|-8-88----6-66----8-88----6-66----888-----| x3
A|-6-66----6-66----6-66----6-66----888-----|
E|---------4-44------------4-44----666-----|

Then Play Prechorus and chorus then-

Outro (chorus with distortion):


e|----------------------|-----------------------------------------------------|
B|-8888-8888-4444-------|---------8888-8888-4444------------------------------|
G|-8888-8888-5555-------|---------8888-8888-5555------------------------------|
D|-8888-8888-5555-66-88-|-x2-then-8888-8888-5555--------333-5-666-5-333-5-666-|
A|-6666-5555-3333-66-88-|---------6666-5555-3333--------333-5-666-5-333-5-666-|
E|----------------44-66-|------------------------4-3----111-3-444-3-111-3-444-|


e|---------------------------------|
B|---------------------8-----------|
G|---------------------8-----------|
D|-5--3----5--6----8---8-----------|
A|-5--3----5--6----8---6-----------|
E|-3-1---3-4--4----6---------------|


                             THE END
Tap to rate this tab
# A B C D E F G H I J K L M N O P Q R S T U V W X Y Z