Song name
# A B C D E F G H I J K L M N O P Q R S T U V W X Y Z

Reel Big Fish - A Little Doubt Goes A Long Way tab

Artist:Reel Big Fish
Song:A Little Doubt Goes A Long Way
Album:Cheer Up!
Tabbed by:Duncan S/reelbigfish432

Theres only the 1 guitar in this song (Aaron)

Legend:
~-vibrato
/-slide up

Intro:
E|-7--7----------------|
B|-9--9----------------|
G|-9--9---7-7-7-6-4--6-|
D|-9--9----------------|x3
A|-7--7----------------|
E|---------------------|

Chorus:
E|-7-7-7-7--5-5--7-7-|
B|-9-9-9-9--5-5--7-7-|
G|-9-9-9-9--6-6--8-8-|
D|-9-9-9-9--7-7--9-9-|x3
A|-------------------|
E|-------------------|

E|-7-7-7---------------------------|
B|-9-9-9-------------10-10-10-7----|
G|-9-9-9------------------------8~-|
D|-9-9-9--9-9-9-7-6----------------|
A|---------------------------------|
E|---------------------------------|

Pre-Verse:
E|--------------------|
B|--------------------|
G|-9-9--9-7-7--7-9----|
D|-9-9--9-7-7--7-9--9-|
A|-7-7--7-5-5--5-7--9-|
E|------------------7-|

E|-----------------|
B|-----------------|
G|-9-9--9-7-7--7-9-|
D|-9-9--9-7-7--7-9-|
A|-7-7--7-5-5--5-7-|
E|-----------------|

Verse:
E|-7-7-7-7--5-5--7-7-|
B|-9-9-9-9--5-5--7-7-|
G|-9-9-9-9--6-6--8-8-|
D|-9-9-9-9--7-7--9-9-|x7
A|-------------------|
E|-------------------|

E|-7-7-7-7--7-7-7-7-7-7-|
B|-9-9-9-9--7-7-7-7-7-7-|
G|-9-9-9-9--8-8-8-8-8-8-|
D|-9-9-9-9--9-9-9-9-9-9-|
A|----------------------|
E|----------------------|

Pre-Chorus:
E|-5-5-/-7-7--7-7---9--9-|
B|-5-5-/-7-7--9-9---9--9-|
G|-6-6-/-8-8--9-9---9--9-|
D|-7-7-/-9-9--9-9--------|x2
A|-----------------------|
E|-----------------------|

E|-5-5-5-5-/-7-7-7-7-|
B|-5-5-5-5-/-7-7-7-7-|
G|-6-6-6-6-/-8-8-8-8-|
D|-7-7-7-7-/-9-9-9-9-|
A|-------------------|
E|-------------------|

E|-9-9--7-7--5-5-5-5-/-7-7-7-77-|
B|-9-9--7-7--5-5-5-5-/-7-7-7-77-|
G|-9-9--8-8--6-6-6-6-/-8-8-8-88-|
D|------9-9--7-7-7-7-/-9-9-9-99-|
A|------------------------------|
E|------------------------------|

Then play a chorus, a pre-verse, a verse,a pre-chorus, an intro, a verse, a pre-chorus, 2 chorus' then end. 

Thats it, comments ratings and improvements are welcome, enjoy!
Tap to rate this tab
 
# A B C D E F G H I J K L M N O P Q R S T U V W X Y Z