Guitaretab - guitar tabs
Song name
# A B C D E F G H I J K L M N O P Q R S T U V W X Y Z

Reeve Oliver - I Want Burns tab

-----------------------------------------------------------------------
I WANT BURNS  Reeve Oliver
-----------------------------------------------------------------------
Tabbed by: John Burris
Email: johnburris1@msn.com
Band website:www.reeveoliver.com
Tuning: Tune down  step (Eb, Ab, Db, Gb, Bb, Eb)
[**Ok- as far as I can tell, guitarist Sean O'Donnell tunes down 2 full steps
plays with a capo at the 3rd fret. I've simplified things a bit here by just tuning down 
step to
and there's no need to use a capo this way. The chord shapes are still essentially the 
as the ones that Sean uses with the detuned/capo method.]

Chords used:

-0-   -0-   ---  ---  ---  ---  ---   ---   ---   ---    ---     -5-
-0-   -2-   ---  ---  ---  ---  ---   ---   ---   ---    ---     -5-
-1-   -1-   -5-  -4-  ---  ---  -6-   ---   -6-   ---    ---     -7-
-2-   -2-   -5-  -4-  -4-  -7-  -6-   -6-   -x-   -5-    -4-     -7-
-2-   ---   -3-  -2-  -4-  -7-  -4-   -6-   -4-   -3-    -2-     -5-
-0-   ---   ---  ---  -2-  -5-  ---   -4-   -6-   -3-    -2-     -5-
  E    E6    C    B    F#   A    C#    G#   Bbm   C/G    B/F#  Dsus2/A

Intro (guitar only):
e|-------------------0-0-0-------0-0-0--------0-0-0-------0-0-0--|
B|-------------------0-0-0-------2-2-2--------0-0-0-------2-2-2--|
G|-1-1-1-1-1-1-1-1---1-1-1--1-1--1-1-1---1-1--1-1-1--1-1--1-1-1--|
D|-2-2-2-2-2-2-2-2---2-2-2--2-2--2-2-2---2-2--2-2-2--2-2--2-2-2--|
A|-2-2-2-2-2-2-2-2---2-2-2--2-2----------2-2--2-2-2-2-2---------|
E|-0-0-0-0-0-0-0-0---0-0-0--------------------0-0-0--------------|
 slight P.M......|

e|------0-0-0-------0-0-0--------0-0-0-------0-0-0---------------|
B|------0-0-0-------2-2-2--------0-0-0-------2-2-2---------------|
G|-1-1--1-1-1--1-1--1-1-1---1-1--1-1-1--1-1--1-1-1---------------|
D|-2-2--2-2-2--2-2--2-2-2---2-2--2-2-2--2-2--2-2-2---------------|
A|-2-2--2-2-2--2-2----------2-2--2-2-2--2-2----------------------|
E|------0-0-0--------------------0-0-0---------------------------|

e|-0-0-0-0-0-0-0-0-0-0-------------------------------------------|
B|-2-2-2-2-2-2-2-2-2-2-------------------------------------------|
G|-1-1-1-1-1-1-1-1-1-1--5-5-5-5-5-5-5-5--4-4-4-4-4-4-4-4---------|
D|-2-2-2-2-2-2-2-2-2-2--5-5-5-5-5-5-5-5--4-4-4-4-4-4-4-4---------|
A|----------------------3-3-3-3-3-3-3-3--2-2-2-2-2-2-2-2---------|
E|---------------------------------------------------------------|
 "and I write, cause I owe it to you......"

e|-------------------------0-------------------------------------|
B|-------------------------2-------------------------------------|
G|-------------------------1-------------------------------------|
D|--4-4-4-4-4-4-4-4--------2-------------------------------------|
A|--4-4-4-4-4-4-4-4----------------------------------------------|
E|--2-2-2-2-2-2-2-2----------------------------------------------|


(Drums & Bass in):
e|---0-0-0-0--0-0-0-0---0-0-0-0--0-0-0-0-------------------------|
B|---0-0-0-0--2-2-2-2---0-0-0-0--2-2-2-2-------------------------|
G|---1-1-1-1--1-1-1-1---1-1-1-1--1-1-1-1-------------------------|
D|---2-2-2-2--2-2-2-2---2-2-2-2--2-2-2-2-------------------------|
A|---2-2-2-2------------2-2-2-2----------------------------------|
E|---0-0-0-0------------0-0-0-0----------------------------------|

Chorus:
e|---------------------------------------------------------------|
B|---------------------------------------------------------------|
G|----------------6-6-6-6-6-6-6-6--------------------------------|
D|7-7-7-7-7-7-7-7-6-6-6-6-6-6-6-6-7-7-7-7-7-7-7-7-6-6-6-6-6-6-6-6|
A|7-7-7-7-7-7-7-74-4-4-4-4-4-4-4-7-7-7-7-7-7-7-7-6-6-6-6-6-6-6-6|
E|5-5-5-5-5-5-5-5-----------------5-5-5-5-5-5-5-5-4-4-4-4-4-4-4-4|

e|---------------------------------------------5-5-5-5-5-5-5-5---|
B|---------------------------------------------5-5-5-5-5-5-5-5---|
G|--------------------6-6-6-6-6-6-6-6----------7-7-7-7-7-7-7-7---|
D|--7-7-7-7-7-7-7-7---x-x-x-x-x-x-x-x---5--4---7-7-7-7-7-7-7-7---|
A|--7-7-7-7-7-7-7-7--4-4-4-4-4-4-4-4---3--2---5-5-5-5-5-5-5-5---|
E|--5-5-5-5-5-5-5-5---6-6-6-6-6-6-6-6---3--2---5-5-5-5-5-5-5-5---|
				       "I  know  I ......"

e|--4-0-------------4-0-------------4-0--------------------------|
B|0-----4h5-4h5---0-----4h5-4h5---0-----4h5-4h5--4h5-4h5-4h5-4h5|
G|---------------------------------------------------------------|
D|---------------------------------------------------------------|
A|---------------------------------------------------------------|
E|---------------------------------------------------------------|


Verse 2:
e|---------------------------------------------------------------|
B|---------------------------------------------------------------|
G|---------------------------------------------------------------|
D|-----------2-2-2-2-------------2-2-2-2-------------------------|
A|-2-2-2-2---0-0-0-0---2-2-2-2---0-0-0-0-------------------------|
E|-0-0-0-0-------------0-0-0-0-----------------------------------|
  P.M...................................|
"Heaven sent and so complete......"

e|--------0--------------0-----------0-----------0---------------|
B|--------0--------------2-----------0-----------2---------------|
G|--------1--------------1-----------1-----------1---------------|
D|--------2--------------2-----------2-----------2---------------|
A|--------2--------------------------2---------------------------|
E|--------0--------------------------0---------------------------|
"I don't ask, you don't tell....."
[ Tab from: http://www.guitaretab.com/r/reeve-oliver/89663.html ]
e|---------------------------------------------------------------|
B|---------------------------------------------------------------|
G|-----------6-6-6-6-----------6-6-6-6-----------2-2-2-2---------|
D|--6-6-6-6--6-6-6-6--6-6-6-6--6-6-6-6--2-2-2-2--2-2-2-2---------|
A|--6-6-6-6--4-4-4-4--6-6-6-6--4-4-4-4--2-2-2-2--0-0-0-0---------|
E|--4-4-4-4-----------4-4-4-4-----------0-0-0-0------------------|
 "Worried I would go away....."

Chorus:
e|---------------------------------------------------------------|
B|---------------------------------------------------------------|
G|----------------6-6-6-6-6-6-6-6--------------------------------|
D|7-7-7-7-7-7-7-7-6-6-6-6-6-6-6-6-7-7-7-7-7-7-7-7-6-6-6-6-6-6-6-6|
A|7-7-7-7-7-7-7-74-4-4-4-4-4-4-4-7-7-7-7-7-7-7-7-6-6-6-6-6-6-6-6|
E|5-5-5-5-5-5-5-5-----------------5-5-5-5-5-5-5-5-4-4-4-4-4-4-4-4|

e|---------------------------------------------5-5-5-5-5-5-5-5---|
B|---------------------------------------------5-5-5-5-5-5-5-5---|
G|--------------------6-6-6-6-6-6-6-6----------7-7-7-7-7-7-7-7---|
D|--7-7-7-7-7-7-7-7---x-x-x-x-x-x-x-x---5--4---7-7-7-7-7-7-7-7---|
A|--7-7-7-7-7-7-7-7--4-4-4-4-4-4-4-4---3--2---5-5-5-5-5-5-5-5---|
E|--5-5-5-5-5-5-5-5---6-6-6-6-6-6-6-6---3--2---5-5-5-5-5-5-5-5---|


e|--4-0-------------4-0-------------4-0--------------------------|
B|0-----4h5-4h5---0-----4h5-4h5---0-----4h5-4h5--4h5-4h5-4h5-4h5|
G|---------------------------------------------------------------|
D|---------------------------------------------------------------|
A|---------------------------------------------------------------|
E|---------------------------------------------------------------|

Solo:
e|---------------------------------------------------------------|
B|-------------------------------------------------5-------------|
G|--4-6-4-------------4-6-4--------------4-6--/8------4----------|
D|--------5-4h5-4h5----------5-4h5-4h5---------------------------|
A|---------------------------------------------------------------|
E|---------------------------------------------------------------|

e|---------------------------------------------------------------|
B|-------------------------------------------------5--5----------|
G|--4-6-4-------------4-6-4--------------4-6--/8-----------------|
D|--------5-4h5-4h5----------5-4h5-4h5---------------------------|
A|---------------------------------------------------------------|
E|---------------------------------------------------------------|


e|--------7-5-4-------4-4\--------7-5-4--------------------------|
B|-5-5-5---------5-7-----------5---------5-7-4-------------------|
G|---------------------------------------------5-----------------|
D|---------------------------------------------------------------|
A|---------------------------------------------------------------|
E|---------------------------------------------------------------|

e|-----7-5-4-----2-4-4br-----------5-5-5-5-5-5-5-5---------------|
B|--5---------5--------------------5-5-5-5-5-5-5-5---------------|
G|---------------------------------7-7-7-7-7-7-7-7---------------|
D|-------------------------5---4---7-7-7-7-7-7-7-7---------------|
A|-------------------------3---2---5-5-5-5-5-5-5-5---------------|
E|-------------------------3---2---5-5-5-5-5-5-5-5---------------|

(Guitar only):
e|---------------------------------------------------------------|
B|---------------------------------------------------------------|
G|---------------------------------------------------------------|
D|----------------6-6-6-6-6-6-6-6--------------------------------|
A|7-7-7-7-7-7-7-7-4-4-4-4-4-4-4-4-7-7-7-7-7-7-7-7-6-6-6-6-6-6-6-6|
E|5-5-5-5-5-5-5-5-----------------5-5-5-5-5-5-5-5-4-4-4-4-4-4-4-4|
  P.M...........................................................|
"For the sun to rise........"

(Drums & Bass in):
e|---------------------------------------------------------------|
B|---------------------------------------------------------------|
G|----------------6-6-6-6-6-6-6-6--------------------------------|
D|7-7-7-7-7-7-7-7-6-6-6-6-6-6-6-6-7-7-7-7-7-7-7-7-6-6-6-6-6-6-6-6|
A|7-7-7-7-7-7-7-74-4-4-4-4-4-4-4-7-7-7-7-7-7-7-7-6-6-6-6-6-6-6-6|
E|5-5-5-5-5-5-5-5-----------------5-5-5-5-5-5-5-5-4-4-4-4-4-4-4-4|

e|---------------------------------------------5-5-5-5-5-5-5-5---|
B|---------------------------------------------5-5-5-5-5-5-5-5---|
G|--------------------6-6-6-6-6-6-6-6----------7-7-7-7-7-7-7-7---|
D|--7-7-7-7-7-7-7-7---x-x-x-x-x-x-x-x---5--4---7-7-7-7-7-7-7-7---|
A|--7-7-7-7-7-7-7-7--4-4-4-4-4-4-4-4---3--2---5-5-5-5-5-5-5-5---|
E|--5-5-5-5-5-5-5-5---6-6-6-6-6-6-6-6---3--2---5-5-5-5-5-5-5-5---|
				       "I  know  I ......"


e|------------5-5-5-5-5-5-5-5---------5-5-5-5-5-5-5-5------------|
B|------------5-5-5-5-5-5-5-5---------5-5-5-5-5-5-5-5------------|
G|------------7-7-7-7-7-7-7-7---------7-7-7-7-7-7-7-7------------|
D|----5---4---7-7-7-7-7-7-7-7---5--4--7-7-7-7-7-7-7-7------------|
A|----3---2---5-5-5-5-5-5-5-5---3--2--5-5-5-5-5-5-5-5------------|
E|----3---2---5-5-5-5-5-5-5-5---3--2--5-5-5-5-5-5-5-5------------|

e|--4-0-------------4-0-------------4-0--------------------------|
B|0-----4h5-4h5---0-----4h5-4h5---0-----4h5-4-2--4h5p4---------|
G|--------------------------------------------------------4----6-|
D|-----------------------------------------------------------6---|
A|---------------------------------------------------------------|
E|---------------------------------------------------------------|

-END-