Guitaretab - guitar tabs
Song name
# A B C D E F G H I J K L M N O P Q R S T U V W X Y Z

Reficul - Apricot Flamingo tab

NEW SONG I WROTE CALLED APRICOT FLAMINGO :)

00-11-33-55-00-33-55-77-00-77-99-1111-15141212121199-10977-|
-----------------------------------------------------------|
-----------------------------------------------------------|
00-00-00-00-00-00-00-00-00-00-00-0-0--0-0-0-0-0-0-00-0-000-|
-----------------------------------------------------------|
-----------------------------------------------------------|finger picking

151412-12119-1097-0-|
--------------------|
--------------------|
------------------0-|
--------------------|
--------------------|end intro

verse 1:
-------------------------------------------------|
-------------------------------------------------|
-------------------------------------------------|
-------------------------------------------------|
------------------------15h17h19(x4)17h19h21(x4)-|
15h17h19(x4)17h19h21(x4)-------------------------|

verse 2:
----------------------------------|
----------------------------------|
----------------------------------|
-------------------3(x3)----------|
-------3(x3)3h6p3h6---------------|
3h6p3h6---------------------------| x2

verse 3:
----------------------------------|
----------------------------------|
----------------------------------|
----------------------------------|
----------------------------------|
t9p0h2h3(x4)-t9p0h5h7(x4)---------| x2(let last note ring out)

verse 4:
0h15h19(x6)-----------------------0h17h21(x6)-22-21-20-19-|
-----------0h15h19(x6)-0h17h21(x6)------------------------|
----------------------------------------------------------|
----------------------------------------------------------|
----------------------------------------------------------|
----------------------------------------------------------|
[ Tab from: http://www.guitaretab.com/r/reficul/177785.html ]
bridge:
-----------------------------------------------------------------|
-----------------------------------------------------------------|
4---4---6---6---8---8---10---10---8---8---6---6---4---4----------|
x---x---x---x---x---x---x----x----x---x---x---x---x---x--2-----7-|
2---2---4---4---6---6---8----8----6---6---4---4---2---2--2-----7-|
-000-000-000-000-000-000--000--000-000-000-000-000-000-000-----5-|
pm.. ... ... ... ... ...  ...  ... ... ... ... ... ... ..

verse 5:
-----------------------------------|
-----------------------------------|
-----------------------------------|
2--2--2---25----765678-------------|
2--2--2---25----765678-------------|
000000000003(x4)543456-------------|
pm. .. ...

solo:
------------------------------------|
------------------------------------|
14-15b17-16-17b19-18-19b21-20-21b23-|
------------------------------------|
------------------------------------|
------------------------------------|

t17p14h17p14(x8)-
-----------------|
-----------------|
-----------------|
-----------------|
-----------------|

t17p15p12--------|
---------t17(x4)-|
-----------------|
-----------------|
-----------------|
-----------------|

t19p15p12--------|
---------t19(x4)-|
-----------------|
-----------------|
-----------------|
-----------------|

t21p15p12--------|
---------t21(x4)-|
-----------------|
-----------------|
-----------------|
-----------------|

t19p15p12--------|
---------t19(x4)-|
-----------------|
-----------------|
-----------------|
-----------------|

t17p15p12--------|
---------t17(x4)-|
-----------------|
-----------------|
-----------------|
-----------------|

t17p14h17p14(x4)-----------------|
---------------------------------|
-------------------12-11-12------|
-------------------------------2-|
-------------------------------2-|
-------------------------------0-|end solo/song

hope you enjoyed the song i will post a mp3 later
http://www.ultimate-guitar.com/vaimaster/
Related for Apricot Flamingo tab
Advertisement will be closed in 10 seconds