Song name
# A B C D E F G H I J K L M N O P Q R S T U V W X Y Z

Reficul - Cult Of Hate tab

CULT OF HATE BY REFICUL

My Newest Song The Third Solo Is Tricky But Enjoy!!!
intro:
-----------------------------------------------------------------------------|
-----------------------------------------------------------------------------|
0-0-0-0-2-2-2-2-4-4-4-4-6-6-6-6-8-8-8-8-10-10-10-10-12-12-12-12-14-14-14-14--|
-0-0-0-0-0-0-0-0-0-0-0-0-0-0-0-0-0-0-0-0--0--0--0--0--0--0--0--0--0--0--0--0-|
-----------------------------------------------------------------------------|
-----------------------------------------------------------------------------|

--------------------------------------------------|
--------------------------------------------------|
16-16-16-16-18-18-18-18-20-20-20-20-22-22-22-22---|(and then go back down)
--0--0--0--0--0--0--0--0--0--0--0--0--0--0--0--0--|
--------------------------------------------------|
--------------------------------------------------|

Solo 1:
----------------------------------------------------------------|
----------------------------------------------------------------|
----------------------------------------------------------------|
--------------------------------14h161616-1616-1616-1616-161616-|
14h161616-1616-1616-1616-161616---------------------------------|
----------------------------------------------------------------|

-----------------------------------------------------|
-----------------------------------------------------|
-----------------------------------------------------|
--------------------------------14h1614-16b18-16b18--|(tremolo pick very fast)
14h161616-1616-1616-1616-161616----------------------|
-----------------------------------------------------|
x2

Verse Riff:
--------------------|
--------------------|
--------------------|
--------------------|
2---2---2-----------|
2---2--22-2h3h5p3p2-|x4 every time
pm     .

Chorus:
----------------------------------|
----------------------------------|
----------------------------------|
3--33-3/5-555--3--33-3/7-777------|
3--33-3/5-555--3--33-3/7-777------|
3--33-3/5-555--3--33-3/7-777------|x2 every time

Guitar Hook:
-------------------------------|
-------------------------------|
-------------------------------|
-------------------------------|
-------------------------------|
00h2p0h3p0-0h6p0h5p0-0h3p0h1p0-|x4 every time

Verse Riff
Chorus
Guitar Hook

Bridge 1:
-----------------------------|
-----------------------------|
-----------------------------|
7777-7777-7777-7777-7777777--|
7777-7777-7777-7777-7777777--|
7777-7777-7777-7777-7777777--|
pm.  ...  ...  ...  ......

Solo 2 Part One(very slow speed)
--------------------------------------13-10----10---13-10-------------|
--------------------------------------------13------------13-10-------|
----------------10-12b14--12~~-10-------------------------------12-10-|
------10-12-----------------------------------------------------------|
10h12-----------------------------------------------------------------|
----------------------------------------------------------------------|

/20--18-17-17h18p17--------18--16-15-15h16p15--------|
-------------------18-17--------------------16-17----|
-----------------------------------------------------|
-----------------------------------------------------|
-----------------------------------------------------|
-----------------------------------------------------|

20-18-17-20-18-17-20-18-17-20-18-17-18-16-15-18-16-15-18-16-15-18-16-15-|
------------------------------------------------------------------------|
------------------------------------------------------------------------|
------------------------------------------------------------------------|
------------------------------------------------------------------------|
------------------------------------------------------------------------|

------------------------------------------------------------------------|
18-16-15-18-16-15-18-16-15-18-16-15-20-18-17-20-18-17-20-18-17-20-18-17-|
------------------------------------------------------------------------|
------------------------------------------------------------------------|
------------------------------------------------------------------------|
------------------------------------------------------------------------|

Solo 2 Part Two(very fast)
201817201817201817201817201817201817201817201817-
-------------------------------------------------|
-------------------------------------------------|
-------------------------------------------------|
-------------------------------------------------|
-------------------------------------------------|

181615181615181615181615181615181615181615181615-
-------------------------------------------------|
-------------------------------------------------|
-------------------------------------------------|
-------------------------------------------------|
-------------------------------------------------|

-------------------------------------------------
181615181615181615181615181615181615181615181615-
-------------------------------------------------|
-------------------------------------------------|
-------------------------------------------------|
-------------------------------------------------|

-------------------------------------------------
201817201817201817201817201817201817201817201817-
-------------------------------------------------|
-------------------------------------------------|
-------------------------------------------------|
-------------------------------------------------|

------------------------------------------------------|
------------------------------------------------------|
------------------------------------------------10~~--|
--------10---12--------10h12-----10h12-----10h12------|
10h12-------------10h12-----10h12-----10h12-----------|
------------------------------------------------------|

---------------------|
---------------------|
t14p10h12(x6)t14~~~~-
---------------------|
---------------------|
---------------------|end solo(verse riff starts abrubtly)

verse riff
chorus
guitar hook
(drum solo)10sec pause

Bridge 2:
-----------------------------------------------------------------------|
-----------------------------------------------------------------------|
-----------------------------------------------------------------------|
-----------------------------------------------------------------------|
----------------------------------------------------------------530220-|
[3]-[3][3][3]-[3][3][3]-[3][3][3]-[3][3][3]-[3][3][3]-[3][3][3]-530220-|x7

--------|
--------|
--------|
--------|
-530220-
-530220-x6

Solo 3:(tricky)

--------------------------------------------------------------------------|
--------------------------------------------------------------------------|
--------------------------------------------------121212--121414141214~~~-|
------------------------------121212--121414141214------14----------------|
----------121212--121414141214------14------------------------------------|
1515151215------15--------------------------------------------------------|

1212121215121212121512121212151212121215b17-15b17-
--------------------------------------------------|
--------------------------------------------------|
--------------------------------------------------|
--------------------------------------------------|
--------------------------------------------------|

---------------------------------------------------|
121512--121512--121512--121512--121512--121512-----|
------14------14------14------14------14------14~~-|
---------------------------------------------------|
---------------------------------------------------|
---------------------------------------------------|

191715191715191715191715191715191715-19-19-|
-------------------------------------------|
-------------------------------------------|
-------------------------------------------|
-------------------------------------------|
-------------------------------------------|

t22p15h18(x8)t20p15h18(x8)t22p15h18t20p15h18(x8)-
-------------------------------------------------|
-------------------------------------------------|
-------------------------------------------------|
-------------------------------------------------|
-------------------------------------------------|

(sweep)
-------------------------12h15p12--------------------------|
--------------------12h15--------15p12---------------------|
---------------12h14------------------14p12----------------|
----------12h14----------------------------14p12-----------|
-----12h14--------------------------------------14p12------|
12h15------------------------------------------------15p12-|

12---1212---1212---1212----|
15b17--15b17--15b17--15b17-|
---------------------------|
---------------------------|
---------------------------|
---------------------------|

22(tremolo picked fast as possible for 2 sec)22b24(same as last)22b24-22b24-
----------------------------------------------------------------------------|
----------------------------------------------------------------------------|
----------------------------------------------------------------------------|
----------------------------------------------------------------------------|
----------------------------------------------------------------------------|
end solo

Bridge 3:
-------------|
-------------|
-------------|
-----------0-|
-530220----0-|
-530220(x6)0- let ring out

intro

outro:
-------------|
-------------|
--0---2------|
0---0-0------|(x4)
-------------|
-------------|

2---2---2---2---2--2-2-------------------------------|
2---3---2---3---2--3-2-----3-2-3-2-3-2-3-2-3-2tr3-2--|h3p2h4p2(trill that part)
2---2---2---2---2--2-2-------------------------------|
0---0---0---0---0--0-0-(x8)--------------------------|
-----------------------------------------------------|
-----------------------------------------------------|

2---2---2---2---------------------------------------20----------------|
2---3---2---3------------------------------------20-----(freestyle)---|
2---2---2---2-----0---2-------0---0-----------------------------------|
0---0---0---0---0---0-0(x3)-0---0-0---------0-----------------------0-|
--------------------------------------------0-----------------------0-|
--------------------------------------------0-----------------------0-|
end song

thank you for playing hope you liked it

tab legend:
h=hammer on
p=pull off
/=slide
~~=vibrato
t=tap
tr=trill
[]=natural harmonic
pm...=palm mute
b=bend

ALSO CHECK OUT MY SONG APRICOT FLAMINGO
ultimate-guitar.com/vaimaster/
Tap to rate this tab
# A B C D E F G H I J K L M N O P Q R S T U V W X Y Z