Song name
# A B C D E F G H I J K L M N O P Q R S T U V W X Y Z

Refreshments - King Of The Hill Theme tab

I revised a tab already on here and made it better.

Tabbed by:Munki_lp_13_13
Email:Munki_lp_13_13@hotmail.com

Tuning:Standard

e|----------------------------------------------------------------------------|
B|----------------------------------------------------------------------------|
G|----------------------------------------------------------------------------|
D|----------------------------------------------------------------------------|
A|------------------------4--2------------------------------------------------|
E|---0--0--0--4--0--0--5--------0--0--0--4--0--0--5--4--2--2--4--2------------|

e|----------------------------------------------------------------------------|
B|----------------------------------------------------------------------------|
G|----------------------------------------------------------------------------|
D|----------------------------------------------------------------------------|
A|---------------------------4--2--7--4--2--------------------9--9------------|
E|---0--0--0--4--0--0--5--5-----------------5--4--4--5--4--0--7--7------------|

e|----------------------------------------------------------------------------|
B|----------------------------------------------------------------------------|
G|----------------------------------------------------------------------------|
D|--9--9--9--9----------------------------------------------------------------|
A|--7--7--7--7--9--9--9--9--11--11--11--11--7--7--7--7--7--4--2---------------|
E|--------------7--7--7--7--9---9---9---9---5--5--5--5---------5--4--4--5-4-0-|

A|--9-----|
E|--7-----|
Tap to rate this tab
# A B C D E F G H I J K L M N O P Q R S T U V W X Y Z