Song name
# A B C D E F G H I J K L M N O P Q R S T U V W X Y Z

Refreshments - King Of The Hill tab

song:king of the hill
artist:the refreshments
tabber: mark69

intro

e---------------------------------------------------------|
b---------------------------------------------------------|
g---------------------------------------------------------|
d---------------------------------------------------------|
a-------------------0-000-4-2-----------------0-----------|
e---0-000-0-4-000-0-----------0-000-0-4-000-0---4-2-2h4p0-|

e--------------------------------------------------|
b--------------------------------------------------|
g-----------------------------------------------99-|
d-----------------------------2-----------------99-|
a-------------------0-000-4-2---4-2-0-----------77-|
e---0-000-0-4-000-0-------------------4-4h5p4p0----|

verse

e---------------------------------------------|
b---------------------------------------------|
g-6-6-6-6--------------------7-777-7----------|
d-6-6-6-6--6-6-6-6--7-7-7-7--7-777-7--7-777-7-|
a-4-4-4-4--6-6-6-6--7-7-7-7--5-555-5--7-777-7-|
e----------4-4-4-4--5-5-5-5-----------5-555-5-|

e-----------------------------------------------|
b-----------------------------------------------|    after this go back to
g-6-6-6-6---------------------------------------|    intro and play up till
d-6-6-6-6--6-6-6-6--77777777--99--77--66--6s7s6-|    here 1 more time then
a-4-4-4-4--6-6-6-6--77777777--99--77--66--6s7s6-|    play the intro again
e----------4-4-4-4--55555555--77--55--44--4s5s4-|    then the solo.

solo #1

e-9------------------------------------------|
b--------------------------9-----------------|
g---11b(13)-9----9-11b(13)---11r(13)-9----9--|
d-------------11-----------------------11----|
a--------------------------------------------|
e--------------------------------------------|

e----------------------------------------------------------|
b-12b(14)-12b(14)9-9h10p9----------------------------------|
g-------------------------11-9-11b(13)-9----9----9----9----|
d----------------------------------------11---11---11---11-|
a----------------------------------------------------------|
e----------------------------------------------------------|

e--------------------------------------|
b-10-101010-10-9-9-12-121212-12-10-9---|
g--9--9-9-9--9-9-9--9--9-9-9--9--9-9---|
d--------------------------------------|
a--------------------------------------|
e--------------------------------------|
                                       hold bend                  hold bend
e---12-11-9-------------------------------------------------------12------|
b-----------12-10-9-------------------------------12------14------15b(17)-|
g-9-----------------11-11b(13)9----9-11-11b(13)---15b(16)-17b(18)---------|
d-------------------------------11----------------------------------------|
a-------------------------------------------------------------------------|
e-------------------------------------------------------------------------|

then play the intro one more time then end the song with this last solo.

solo#2
e-12-9-7--------------12-9-7---77--12-9-7------------|
b--------9-7--55-------------9------------9-7-55-----|
g----------------6-4-----------------------------6-4-|
d----------------------------------------------------|
a----------------------------------------------------|
e----------------------------------------------------|

e-------------7h9-11b(12)-11-11b(12)9-7-9-----11b(12)-11-11b(12)-9-7-9-|
b-----5h7-7h9-----------------------------7h9--------------------------|
g-4h6------------------------------------------------------------------|
d----------------------------------------------------------------------|
a----------------------------------------------------------------------|
e----------------------------------------------------------------------|

e-11b(12)-11-11b(12)-9-7-9----------|
b---------------------------7h9-----|
g-------------------------------4h6-|
d-----------------------------------|
a-----------------------------------|
e-----------------------------------|

now finish the song by playing this.

e-------------------------------------|
b-------------------------------------|
g-------------------77----------------|
d-2-----------------77----------------|
a---4-2-0-----------55----------------|
e---------4-4h5p4p0-------------------|

injoy im pretty sure they are right listen to the song to get the rythem

symbols:

s=slide
b=bend ()says where to bend to
h=hammer on
p=pull off

pplz rate this tab its my first

if you have any questions pplz email me at kaptain_krack@hotmail.com
Tap to rate this tab
# A B C D E F G H I J K L M N O P Q R S T U V W X Y Z