Song name
# A B C D E F G H I J K L M N O P Q R S T U V W X Y Z

Refreshments - King Of The Hill tab

#----------------------------------PLEASE NOTE---------------------------------#
#This file is the author's own work and represents their interpretation of the #
#song. You may only use this file for private study, scholarship, or research. #
#------------------------------------------------------------------------------#


-------------------------------------------------------------------------------
			     King of The Hill Theme - The Refreshments
-------------------------------------------------------------------------------
Tabbed by: blakeg14
Email: blakeg14@yahoo.com

Tuning: Standard (EADGBe)

Notes:
*This song was made by the band "The Refreshments", and the song is actually called 
and Triangles".
*It's played at the beginning of every King of The Hill episode.
*I labeled it "intro" for that reason, also it does NOT contain the solo, sorry.
*It's a pretty fast song and the picking pattern can be a little complicated when you're 
around on the fretboard.
*I was getting tired of so many people post the other version that used a lot of single 
so I made this one.
*Staccato means "short; distinctively seperated", the periods following the staccato 
what is being staccatoed.
*The bars placed everywhere in this tab (These "|") are used only to split up the parts.

Anyways, Enjoy :D


Intro

e|---0-0-|---0---|Let this last chord ring out.
B|---2-2-|---0---|
G|---2-2-|---1---|
D|---2-2-|---2---|
A|-0-----|---2---|
E|-------|-0-----|

e|----------------------|-----------------------|---------------------|
B|----------------------|-----------------------|---------------------|
G|----------------------|-----------------------|---------------------|
D|----------------------|-----------------------|---------------------|
A|-22222222--777--11--9-|-22222222--77-66-4/6\4-|-22222222--777-11-9--|
E|-00004000--555--9---7-|-00004000--55-44-2/4\2-|-00004000--555-9--7--|

e|--------------|----------|------|
B|--------------|----------|------|
G|--------------|----------|------|
D|--99----------|----------|------|
A|--77-11-11-99-|77-66-7-6-|-222--|
E|-----9--9--77-|55-44-5-4-|-000--|


Staccato.............
e|---------|---------|-------------------------|
B|---------|---------|-------------------------|
G|-6-6-6-6-|---------|-------------------------|
D|-6-6-6-6-|-6-6-6-6-|-------------------------|
A|-4-4-4-4-|-6-6-6-6-|-77777777--99-77-66-7-6--|
E|---------|-4-4-4-4-|-55555555--77-55-44-5-4--|

Outro

e|---------------------|
B|---------------------|
G|---------------------|
D|---------------------|
A|-22222222--777-11-9--|
E|-00004000--555-9--7--|

e|---------------------------------|
B|---------------------------------|
G|---------------------------------|
D|--99------------------------99x--|
A|--77-11-11-99-77-66-77-6-2--77x--|
E|-----9--9--77-55-44-55-4-0-------|


~FIN~

| /  slide up
| \  slide down
| h  hammer-on
| p  pull-off
| ~  vibrato
| +  harmonic
| x  Mute note
===============================================================================
Tap to rate this tab
# A B C D E F G H I J K L M N O P Q R S T U V W X Y Z