Refused - Refused Are Fucking Dead tab

-----------------------------------------------------------------------------
	                  Refused Are Fucking Dead - Refused
-----------------------------------------------------------------------------

Tabbed by: Blake

Feel free to leave a comment if something's wrong.

Tuning: Drop D

Intro: Repeat from 0:00-0:26 
e|-----------3---------------------|
B|-----------3---------------------| 
G|-----------3---------------------|
D|-5-x-x-5-x---x-x-x---------------|
A|-5-x-x-5-x---x-x-x---------------|
D|-5-x-x-5-x---x-x-x-5-5b-5b-5b-3--|

e|-----------3---3-----------------|
B|-----------3---3-----------------| 
G|-----------3---3-----------------|
D|-5-x-x-5-x---x---x---------------|
A|-5-x-x-5-x---x---x---------------|
D|-5-x-x-5-x---x---x-5-5b-5b-5b-3--|


Verse: Repeat from 0:27-1:02
e|----------------------------|
B|-8-x-x-8-8-8-8-x-x-8-8-x-x--|
G|-7-x-x-7-7-7-7-x-x-7-7-x-x--|
D|-5-x-x-5-5-5-5-x-x-5-5-x-x--|
A|-5-x-x-5-5-5-5-x-x-5-5-x-x--|
D|-5-x-x-5-5-5-5-x-x-5-5-x-x--|


Chorus: Repeat from 1:03-1:28 1:48
e|-----------------------------|
B|-----------------------------|
G|-7p0-6p0-6h7p0-3-3-3-3h4p3p0-|
D|-----------------------------|
A|-----------------------------|
D|-----------------------------|


Drum Break: 1:29
e|-------|
B|-------|
G|-7-6-7-|
D|-5-5-5-|
A|-5-5-5-|
D|-5-5-5-|


Chorus: Repeat from 1:31-1:48
e|-----------------------------|
B|-----------------------------|
G|-7p0-6p0-6h7p0-3-3-3-3h4p3p0-|
D|-----------------------------|
A|-----------------------------|
D|-----------------------------|


Break 1: 1:04-2:06
e|-------------------------------------------|
B|-------------------------------------------|
G|-2~----------------2b----------------------|
D|-------------------------------------------|
A|-------------------------------------------|
D|-------------------------------------------|


Chorus: Repeat from 2:07-2:15
e|-----------------------------|
B|-----------------------------|
G|-7p0-6p0-6h7p0-3-3-3-3h4p3p0-|
D|-----------------------------|
A|-----------------------------|
D|-----------------------------|
	
		
Break 2(Pt.1): Repeat from 2:16-2:24
e|---------------------------|
B|-3-3-3-3-3p2---5-5-5h6p5-0-|
G|---------------------------|
D|---------------------------|
A|---------------------------|
D|---------------------------|


Break 2(Pt.2): Repeat from 2:25-2:30
e|---------------3-3-3h5p3---|
B|-3-3-3-3-3h5-------------3-|
G|---------------------------|
D|---------------------------|
A|---------------------------|
D|---------------------------|


Lead-in: Play from 2:31-2:35
e|-------------------------------------|
B|-3-3-3-3-3-5-5-5-0-0-0---------------|
G|-----------------------3-3-3---------|
D|-----------------------------2-2-3~--|
A|-------------------------------------|
D|-------------------------------------|
pm . . . . . . . . . . . . . . . .


Chorus: Repeat from 2:36-2:53
e|-----------------------------|
B|-----------------------------|
G|-7p0-6p0-6h7p0-3-3-3-3h4p3p0-|
D|-----------------------------|
A|-----------------------------|
D|-----------------------------|


Verse: Repeat from 2:54-3:28 (Let note ring out from 3:09-3:11)
e|----------------------------|
B|----------------------------|
G|-7-x-x-7-7-7-7-x-x-7-7-x-x--|
D|-5-x-x-5-5-5-5-x-x-5-5-x-x--|
A|-5-x-x-5-5-5-5-x-x-5-5-x-x--|
D|-5-x-x-5-5-5-5-x-x-5-5-x-x--|


Drum Break: 3:29
e|-------|
B|-------|
G|-7-6-7-|
D|-5-5-5-|
A|-5-5-5-|
D|-5-5-5-|


Chorus: Repeat from 3:31-3:39
e|-----------------------------|
B|-----------------------------|
G|-7p0-6p0-6h7p0-3-3-3-3h4p3p0-|
D|-----------------------------|
A|-----------------------------|
D|-----------------------------|


Ring Out: 3:40
e|------|
B|------|
G|------|
D|--3~--|
A|------|
D|------|


Bridge: 3:41-3:59
Bass and Effects.


Outro: Repeat from 4:00-4:34
e|-------------------------------------------------|
B|-------------------------------------------------|
G|-9-9--9-9-9--9-9--9-9-9--5-5--5-5-5--5-5--5-5-5--|
D|-7-7--7-7-7--7-7--7-7-7--5-5--5-5-5--5-5--5-5-5--|
A|-5-5--5-5-5--5-5--5-5-5--3-3--3-3-3--3-3--3-3-3--|
D|-0-0--0-0-0--0-0--0-0-0--3-3--3-3-3--3-3--3-3-3--|


End On: 4:35
e|-----|
B|-----|
G|-----|
D|-----|
A|-----|
D|--2--|

Tap to rate this tab
 
# A B C D E F G H I J K L M N O P Q R S T U V W X Y Z