Song name
# A B C D E F G H I J K L M N O P Q R S T U V W X Y Z

Refused - Pretty Face tab

Intro:
D#|--------------------------|------------------|
 A|--------------------(x3)--|------------------|
F#|--------------------------|------------------|
C#|--1-0-1-3--0-1-3-0--------|--1-0-1-3--0-1-3--|
G#|--1-0-1-3--0-1-3-0--------|--1-0-1-3--0-1-3--|
C#|--1-0-1-3--0-1-3-0--------|--1-0-1-3--0-1-3--|

Verse:
D#|----------------------------------------------------|
 A|----------------------------------------------------|
F#|----------------------------------------------------|
C#|--7-7-7--3-3-3------7-7-7--3-3-3--------------------|
G#|--7-7-7--3-3-3------7-7-7--3-3-3--------------------|
C#|--7-7-7--3-3-3--8---7-7-7--3-3-3--8--0-2-3-6--------|

D#|----------------------------------------------|
 A|----------------------------------------------|
F#|----------------------------------------------|
C#|--7-7-7--3-3-3------7-7-7--3-3-3--------------|
G#|--7-7-7--3-3-3------7-7-7--3-3-3--------------|
C#|--7-7-7--3-3-3--8---7-7-7--3-3-3--8--0-2-3-1--|

-------------------------------------------------|
-------------------------------------------------|
-------------------------------------------------|
--7-7-7--3-3-3------7-7-7--3-3-3-----------------|
--7-7-7--3-3-3------7-7-7--3-3-3-----------------|
--7-7-7--3-3-3--8---7-7-7--3-3-3--8--0-2-3-6-----|


D#|-------------------------------------|
 A|-------------------------------------|
F#|-------------------------------------|
C#|--7-7-7--3-3-3------7-7-7--3-3-3-----|
G#|--7-7-7--3-3-3------7-7-7--3-3-3-----|
C#|--7-7-7--3-3-3--8---7-7-7--3-3-3--8--|

Chorus:
D#|------------------------------------------------------------------|
 A|------------------------------------------------------------------|
F#|-------6---------------6---------------6---------------6-------6--|
C#|--0-0--6--0-0--0--0-0--6--0-0--0--0-0--6--0-0-----0-0--6--0-0--6--|
G#|--0-0--4--0-0--0--0-0--4--0-0--0--0-0--4--0-0-----0-0--4--0-0--4--|
C#|--0-0-----0-0--0--0-0-----0-0--0--0-0-----0-0-----0-0-----0-0-----|

Repeat Verse 

Repeat Chorus x2

Break/Outro
D#|-----------------------------------------------------------------------|--------------------||
 A|-----------------------------------------------------------------------|--------------------||
F#|-----------------------------------------------------------------------|--------------------||
C#|-----------------------------------------------------------------------|--1-0-1-3--0-1-3-0--||
G#|-------------------------------------------------------------------5---|--1-0-1-3--0-1-3-0--||
C#|3-2-0-6-0-0-8-0---3-2-0-6-0-0-8-0---3-2-0-6-0-0-8-0---3-2-0--0-2-3-----|--1-0-1-3--0-1-3-0--||

Tap to rate this tab
 
# A B C D E F G H I J K L M N O P Q R S T U V W X Y Z