Song name
# A B C D E F G H I J K L M N O P Q R S T U V W X Y Z

Refused - Everlasting tab

	  Intro 	 			        Verse
D#|-----|---------------------------------------------|---------------------------------------|
 A|-----|---------------------------------------(x2)--|---------------------------------------|
F#|-----|-------5-7-------8-7-------7-----------------|-------5-7-------8-7-------7-----------|
C#|--0--|--0-0--5-7--0-0--8-7--0-0--7--0-0-0-0--------|--0-0--5-7--0-0--8-7--0-0--7--0-0-0-0--|
G#|--0--|--0-0--3-5--0-0--6-5--0-0--5--0-0-0-0--------|--0-0--3-5--0-0--6-5--0-0--5--0-0-0-0--|
C#|--0--|--0-0-------0-0-------0-0-----0-0-0-0--------|--0-0-------0-0-------0-0-----0-0-0-0--|

D#|--------------------------------------------------|--------------|--------|
 A|--------------------------------------------------|--------------|--(x2)--|
F#|-------5-7-------8-7-------7----------------------|--------------|--------|
C#|--0-0--5-7--0-0--8-7--0-0--7--0-0-------0-0-------|--0--0--0--0--|--------|
G#|--0-0--3-5--0-0--6-5--0-0--5--0-0--5/3--0-0--3/1--|--0--0--0--0--|--------|
C#|--0-0-------0-0-------0-0-----0-0-------0-0-------|--0--0--0--0--|--------|

    Chorus
D#|------------------------|-------------------|--------|----------------------------------|-----|
 A|------------------(x3)--|-------------------|--(x2)--|----------------------------(x )--|-----|
F#|-----3-3--5-5--6--------|----------------5--|--------|---------5-3-5-----8-8-8-8--------|-----|
C#|--0--3-3--5-5--6--------|--0--0--0---0-1-5--|--------|--0-0-0--5-3-5--0--8-8-8-8--------|--0--|
G#|--0--1-1--3-3--4--------|--0--0--0---0-1-3--|--------|--0-0-0--3-1-3--0--6-6-6-6--------|--0--|
C#|--0---------------------|--0--0--0---0-1----|--------|--0-0-0---------0-----------------|--0--|

   Repeat Intro/Verse

Tap to rate this tab
# A B C D E F G H I J K L M N O P Q R S T U V W X Y Z