Song name
# A B C D E F G H I J K L M N O P Q R S T U V W X Y Z

Refused - I Am Not Me tab

 Intro
D#|---------------------------------------------------------------------------|
 A|---------------------------------------------------------------------------|
F#|----5-------------7-8-5-7-------5-3-----------5-------------7-8-5-7--7~----|
C#|--0-5--0-0-0-0-0--7-8-5-7--0-0--5-3--3-5----0-5--0-0-0-0-0--7-8-5-7--------|
G#|--0-3--0-0-0-0-0--5-6-3-5--0-0--3-1--3-5----0-3--0-0-0-0-0--5-6-3-5--------|
C#|--0----0-0-0-0-0-----------0-0-------3-5----0----0-0-0-0-0-----------------|

D#|---------------------------------------------------------------------------|
 A|---------------------------------------------------------------------------|
F#|----5-------------7-8-5-7-------5-3-----------5-------------7-8-5-7--------|
C#|--0-5--0-0-0-0-0--7-8-5-7--0-0--5-3--3-5----0-5--0-0-0-0-0--7-8-5-7--------|
G#|--0-3--0-0-0-0-0--5-6-3-5--0-0--3-1--3-5----0-3--0-0-0-0-0--5-6-3-5--------|
C#|--0----0-0-0-0-0-----------0-0-------3-5----0----0-0-0-0-0-----------------|

    Verse
D#|--------------------------------------------|
 A|--------------------------------------------|
F#|-------------------8-6-6-6-6--7-5-7--8-7-5--|
C#|--0-0-0-0-1-0-0-0--8-6-6-6-6--7-5-7--8-7-5--|
G#|--0-0-0-0-1-0-0-0--6-4-4-4-4--5-3-5--6-5-3--|
C#|--0-0-0-0-1-0-0-0---------------------------|

--------------------------------------------|-------|
--------------------------------------(x )--|-------|
------------------8-6-6-6-6-----------------|-------|
-0-0-0-0-1-0-0-0--8-6-6-6-6--1-1-1-1--------|--0--1-|
-0-0-0-0-1-0-0-0--6-4-4-4-4--1-1-1-1--------|--0--1-|
-0-0-0-0-1-0-0-0-------------1-1-1-1--------|--0--1-|

    Chorus 
D#|---------------------------|---------|        
 A|---------------------(x )--|---------|       
F#|---------------------------|---------| Repeat
C#|--0-3-1--0-3--0-0-1--------|--0-3-1--| Verse 
G#|--0-3-1--0-3--0-0-1--------|--0-3-1--|       
C#|--0-3-1--0-3--0-0-1--------|--0-3-1--|       

|---------------------------|-----------|--------|
|---------------------(x )--|-----------|--(x )--|
|---------------------------|-----------|--------|
|--0-3-1--0-3--0-0-1--------|--6-6-6-6--|--------|
|--0-3-1--0-3--0-0-1--------|--6-6-6-6--|--------|
|--0-3-1--0-3--0-0-1--------|--6-6-6-6--|--------|


	  Chorus/Outro
D#|-----|---------------------|-----|--------|--------------------------|--------------||
 A|-----|---------------(x )--|-----|--(x )--|--------------------(x )--|--------------||
F#|-----|---------------------|-----|--------|--------------------------|--------------||
C#|--0--|--7-7-7-7--6-6-------|--1--|--------|--0-0-0-----0-0-0---------|--0-0-0-------||
G#|--0--|--7-7-7-7--6-6-------|--1--|--------|--0-0-0-----0-0-0---------|--0-0-0-------||
C#|--0--|--7-7-7-7--6-6-------|--1--|--------|--0-0-0-----0-0-0---------|--0-0-0-------||

Tap to rate this tab
 
# A B C D E F G H I J K L M N O P Q R S T U V W X Y Z