Song name
# A B C D E F G H I J K L M N O P Q R S T U V W X Y Z

Refused - Symbols tab

              Verse
D#|----------|-------------------------------------------|
 A|----------|-------------------------------------------|
F#|----------|-------------------------------------------|
C#|--7-7--7--|--7-7-7-7-7-7--5-8-7-5--8-8-8-8-8-8--------|
G#|--7-7--7--|--7-7-7-7-7-7--5-8-7-5--8-8-8-8-8-8--------|
C#|--7-7--7--|--7-7-7-7-7-7--5-8-7-5--8-8-8-8-8-8--------|

Chorus
D#|-----------------------------------------------------|
 A|-----------------------------------------------------|
F#|-------------5-5-5-6---------------------------------|
C#|--3~--0-0-1--5-5-5-6-6---3~--0-0-1--1-1-1--1-1-1-----|
G#|------0-0-1--3-3-3-4-6-------0-0-1--1-1-1--1-1-1-----|
C#|------0-0-1----------6-------0-0-1--1-1-1--1-1-1-----|

Repeat Verse/Chorus

         Break
D#|-----|--------------------------------|--------------------|
 A|-----|--------------------------------|--------------------|
F#|-----|--------------------------------|--------------------|
C#|--3--|--7-7-7--3-7-3--2-5-3--0--------|--------------------|
G#|-----|--7-7-7--3-7-3--2-5-3--0--------|-------3-5-7-8-7-5--|
C#|-----|--7-7-7--3-7-3--2-5-3--0--------|--/7-8--------------|

Outro
D#|-------------------------|-------------------||
 A|-------------------------|-------------------||
F#|-------------------------|-------------------||
C#|--0-0-0--1-1-1-----------|--0-0-0-0-0--------||
G#|--0-0-0--1-1-1--3--------|--0-0-0-0-0--------||
C#|--0-0-0--1-1-1-----------|--0-0-0-0-0--------||
Tap to rate this tab
# A B C D E F G H I J K L M N O P Q R S T U V W X Y Z