Song name
# A B C D E F G H I J K L M N O P Q R S T U V W X Y Z

Refused - Burn It tab

                    Verse                           Chorus
D#|------------------|-------------------------|-----|------------------------------|
 A|------------(x )--|-------------------(x )--|-----|------------------------------|
F#|------------------|-------------------------|-----|------------------------------|
C#|--0--3--0---------|--0--3-3--0-0-3-0--------|--0--|--1-1--4-4-4--3-3-4--1-3-4----|
G#|--0--3--0---------|--0--3-3--0-0-3-0--------|--0--|--1-1--4-4-4--3-3-4--1-3-4----|
C#|--0--3--0---------|--0--3-3--0-0-3-0--------|--0--|--1-1--4-4-4--3-3-4--1-3-4----|

D#|--------------------15-15------------|--------|        |-------------------------|
 A|-------14-15-15-15--------15---(x )--|--(x2)--|        |-------------------------|
F#|-------------------------------------|--------| Repeat |-------------------------|
C#|--0-0--------------------------------|--------| Verse  |--0--0--0----------------|
G#|--0-0--------------------------------|--------|        |--0--0--0----------------|
C#|--0-0--------------------------------|--------|        |--0--0--0----------------|

    Break/Outro
D#|----------------------------------------------|-----------------------------------|
 A|----------------------------------------(x )--|-----------------------------------|
F#|----------------------------------------------|-----------------------------------|
C#|--0-0-0--0-0------3--6-5-3---6-6-5-1-1--------|--0--1-1-0--1-1-0--1-1-0-----------|
G#|--0-0-0--0-0--5-3------------6-6-5-1-1--------|--0--1-1-0--1-1-0--1-1-0-----------|
C#|--0-0-0--0-0-----------------6-6-5-1-1--------|--0--1-1-0--1-1-0--1-1-0-----------|

D#|----------------------------------------------|-----------------------------------||
 A|----------------------------------------(x )--|-----------------------------------||
F#|----------------------------------------------|-----------------------------------||
C#|--0-0-0--0-0------3--6-5-3---6-6-5-1-1--------|--0--------------------------------||
G#|--0-0-0--0-0--5-3------------6-6-5-1-1--------|--0--------------------------------||
C#|--0-0-0--0-0-----------------6-6-5-1-1--------|--0--------------------------------||
Tap to rate this tab
 
# A B C D E F G H I J K L M N O P Q R S T U V W X Y Z