Song name
# A B C D E F G H I J K L M N O P Q R S T U V W X Y Z

Refused - Crusader Of Hopelessness tab

 Verse
E|-----------------------------------------------------------------------------------------------|
B|-----------------------------------------------------------------------------------------------|
G|-----4----5------------4----5------------4---5--------------------------4---5------------------|
D|--2----5----5--3----2----5----5--5-4-2-----5---5--3-3-3-3-3--6-6-5---2----5---5--3---5-2-5-4---|
A|--2------------3----2------------5-4-2------------3-3-3-3-3--6-6-5---2-----------3---5-2-5-4---|
E|--0------------1----0------------3-2-0------------1-1-1-1-1--4-4-3---0-----------1---3-0-3-2---|

Repeat

Chorus
E|-----------------------------------------------|-------------------------------|------------|
B|-----------------------------------------------|-------------------------------|------------|
G|-----------------------------------------------|-------5-----------------------|-------5----|
D|--3-3-3-3-3-3-3-3-3-3-3-3-3-3-3-3-3-3-3-3-3-3--|--3-2--5-6--2-2-2-2-2-2--------|--3-2--5-6--|
A|--3-3-3-3-3-3-3-3-3-3-3-3-3-3-3-3-3-3-3-3-3-3--|--3-2--3-6--2-2-2-2-2-2--------|--3-2--3-6--|
E|--1-1-1-1-1-1-1-1-1-1-1-1-1-1-1-1-1-1-1-1-1-1--|--1-0----4--0-0-0-0-0-0--------|--1-0----4--|

Repeat Verse

Repeat Chorus

  Break
E|-------------------------|-------------------------------------------|
B|-------------------------|-------------------------------------------|
G|-------5-----------------|-------------------------------------------|
D|--3-2--5-6--7----3-2-----|--3-2-------3-2--------3-2--7-----3-2--10--|
A|--3-2--3-6--7----3-2-----|--3-2--4----3-2--7-----3-2--------3-2------|
E|--1-0----4--5----1-0--5--|--1-0-------1-0--------1-0--------1-0------|

Chorus/Break
E|-------------------------------|-----------------------------||
B|-------------------------------|-----------------------------||
G|-------5-----------------------|-----------------------------||
D|--3-2--5-6--2-2-2-2-2-2--------|--2-2-2-2-2-2-2-2-2-2-2-2-2--||
A|--3-2--3-6--2-2-2-2-2-2--------|--2-2-2-2-2-2-2-2-2-2-2-2-2--||
E|--1-0----4--0-0-0-0-0-0--------|--0-0-0-0-0-0-0-0-0-0-0-0-0--||
Tap to rate this tab
 
# A B C D E F G H I J K L M N O P Q R S T U V W X Y Z