Song name
# A B C D E F G H I J K L M N O P Q R S T U V W X Y Z

Refused - Its Not Ok tab

Verse
E|--------------------------|------------------------|--------------------------|
B|--------------------(x8)--|------------------(x4)--|--------------------(x4)--|
G|---------------5-4--------|----------5-4-----------|---------------5-4--------|
D|---------------5-4--------|----------5-4-----------|---------------5-4--------|
A|--*-*-*-*-*-*--3-2--------|----------3-2-----------|--*-*-*-*-*-*--3-2--------|
E|--2-0-0-2-0-0-------------|--2-0-2-0---------------|--2-0-0-2-0-0-------------|

   Chorus
E|----------------------------------------------------------|        |--------------||
B|----------------------------------------------------(x2)--|        |--------------||
G|------4----5------------4---5------*-*-*-*--*-*-*---------| Repeat |--------------||
D|--2-----5----5--3----2----5---5--3-3-3-3-3--5-5-4---------| Verse  |--3--3--3--3--||
A|--2-------------3----2-----------3-3-3-3-3--5-5-4---------|        |--3--3--3--3--||
E|--0-------------1----0-----------1-1-1-1-1--3-3-2---------|        |--1--1--1--1--||

Tap to rate this tab
# A B C D E F G H I J K L M N O P Q R S T U V W X Y Z