Guitaretab - guitar tabs
Song name
# A B C D E F G H I J K L M N O P Q R S T U V W X Y Z

Refused - The Shape Of Punk To Come tab

Refused - the shape of punk to come

Tabbed by: nirvanboy183


Intro
e|-------------------------------------------------------------------------|
B|-------------------------------------------------------------------------|
G|-------------------------------------------------------------------------|
D|-------------------------------------------------------------------------|
A|------0-45--------------5-----------0-45---------------------------------|
E|2-0-2------0-2--0-2-3-5---00--2-0-2------0-2---025-----------------------|

e|-------------------------------------------------------------------------|
B|-------------------------------------------------------------------------|
G|-------------------------------------------------------------------------|
D|-------------------------------------------------------------------------|
A|------0-45-------------5-----------0-45-------------5--------------------|
E|2-0-2------0-2--0-2-3-5--00--2-0-2------0-2--0-2-3-5--00-----------------|

Verse
e|-------------------------------------------------------------------------|
B|-------------------------------------------------------------------------|
G|-------------------------------------------------------------------------|
D|---------------------------------x8--------------------------------------|
A|------0-45-------------5-------------------------------------------------|
E|2-0-2------0-2--0-2-3-5--00----------------------------------------------|

e|-------------------------------------------------------------------------|
B|-------------------------------------------------------------------------|
G|-444-----444-----4444-555-----7777777777777------------------------------|
D|-444-222-444-222-4444-555-222-7777777777777------------------------------|
A|-222-222-222-222-2222-333-222-5555555555555------------------------------|
E|-----000-----000----------000--------------------------------------------|

Verse
e|-------------------------------------------------------------------------|
B|-------------------------------------------------------------------------|
G|-------------------------------------------------------------------------|
D|---------------------------------x4--------------------------------------|
A|------0-45-------------5-------------------------------------------------|
E|2-0-2------0-2--0-2-3-5--00----------------------------------------------|

Chorus
e|-------------------------------------------------------------------------|
B|------------------------------101010109-9-9------------------------------|
G|---------------------99999999-9-9-9-9-9-9-9------------------------------|
D|---------------------99999999-7-7-7-7-7-7-7----x3------------------------|
A|-555555----444444----77777777--------------------------------------------|
E|-3333335/3-2222223/5-----------------------------------------------------|
Pm     

e|-------------------------------------------------------------------------|
B|-------------------------------------------------------------------------|
G|---------------------99999999-77777777-----------------------------------|
D|---------------------99999999-77777777--7777777777777777-----------------|
A|-555555----444444----77777777-55555555--7777777777777777-----------------|
E|-3333335/3-2222223/5--------------------5555555555555555-----------------|
Pm     
[ Tab from: http://www.guitaretab.com/r/refused/48438.html ]
Verse
e|-------------------------------------------------------------------------|
B|-------------------------------------------------------------------------|
G|-------------------------------------------------------------------------|
D|---------------------------------x4--------------------------------------|
A|------0-45-------------5-------------------------------------------------|
E|2-0-2------0-2--0-2-3-5--00----------------------------------------------|

Middle
e|-0~----0~----0~----0~----------------------------------------------------|
B|-0~----0~----0~----0~----------------------------------------------------|
G|-3~----3~----4~----3~----------------------------------------------------|
D|-4~----4~----5~----4~----------------------------------------------------|
A|-4~----4~----5~----4~----------------------------------------------------|
E|-2~----2~----3~----2~----------------------------------------------------|

e|-------------------------------------------------------------------------|
B|-------------------------------------------------------------------------|
G|----2--------------------------------------------------------------------|
D|-24-2-xxxx-22-4-xxxxxxxx-----x4------------------------------------------|
A|-24-0-xxxx-22-4-xxxxxxxx-------------------------------------------------|
E|-02---xxxx-00-2-xxxxxxxx-------------------------------------------------|

Then Just bass

Solo
e|-------------------2---5-------------------------------------------------|
B|-----3---2---3-5-3---3---55-2--------------------------------------------|
G|-2h4---4---4-----------------2-----x12-----------------------------------|
D|-------------------------------------------------------------------------|
A|-------------------------------------------------------------------------|
E|-------------------------------------------------------------------------|
Pm     

Then
e|-------------------------------------------------------------------------|
B|-------------------------------------------------------------------------|
G|444-----444-----4444x444-----444-----4444-555-----555-----5555-777777777-|
D|444-222-444-222-4444x444-222-444-222-4444-555-222-555-222-5555-777777777-|
A|222-222-222-222-2222x222-222-222-222-2222-333-222-333-222-3333-555555555-|
E|----000-----000----------000-----000----------000-----000----------------|

Verse
e|-------------------------------------------------------------------------|
B|-------------------------------------------------------------------------|
G|-------------------------------------------------------------------------|
D|---------------------------------x6--------------------------------------|
A|------0-45-------------5-------------------------------------------------|
E|2-0-2------0-2--0-2-3-5--00----------------------------------------------|


Chorus
e|-------------------------------------------------------------------------|
B|------------------------------101010109-9-9------------------------------|
G|---------------------99999999-9-9-9-9-9-9-9------------------------------|
D|---------------------99999999-7-7-7-7-7-7-7----x3------------------------|
A|-555555----444444----77777777--------------------------------------------|
E|-3333335/3-2222223/5-----------------------------------------------------|
Pm     

e|-------------------------------------------------------------------------|
B|-------------------------------------------------------------------------|
G|---------------------99999999-77777777-----------------------------------|
D|---------------------99999999-77777777--7777777777777777-----------------|
A|-555555----444444----77777777-55555555--7777777777777777-----------------|
E|-3333335/3-2222223/5--------------------5555555555555555-----------------|
Pm     
End
e|-------------------------------------------------------------------------|
B|-------------------------------------------------------------------------|
G|----2--------------------------------------------------------------------|
D|-24-2-xxxx-22-4-xxxxxxxx-----x12-----------------------------------------|
A|-24-0-xxxx-22-4-xxxxxxxx-------------------------------------------------|
E|-02---xxxx-00-2-xxxxxxxx-------------------------------------------------|
Related for The Shape Of Punk To Come tab