Song name
# A B C D E F G H I J K L M N O P Q R S T U V W X Y Z

Refused - Its Not Ok tab

-------------------------------------------------------------------------------
			     It's Not Ok - Refused
-------------------------------------------------------------------------------
Tabbed by: Ben Parle
Email: livetoride___ridetolive@hotmail.com

Tuning: Standard

Riff 1
e|------------|
B|------------|
G|--------4\3-|
D|-444444-4\3-|
A|-444444-2\1-|x12
E|-222222-----|
pm.******

Riff 2
e|-------------|
B|-------------|
G|---------4\3-|
D|-4-4-4-4-4\3-|
A|-4-4-4-4-2\1-|x4
E|-2-0-2-0-----|

Riff 1
e|------------|
B|------------|
G|--------4\3-|
D|-444444-4\3-|
A|-444444-2\1-|x4
E|-222222-----|
pm.******

Chorus
e|--------------------------------------------------|
B|--------------------------------------------------|
G|----4p0-5p0-----------------4p0-5p0---------------|
D|--------------------------------------------------|
A|-2~----------3~----------2~----------3-3333-3/6\5-|x2
E|-0~----------1~----------0~----------1-1111-1/4\3-|
pm.                                      ****                   

Riff 1
e|------------|
B|------------|
G|--------4\3-|
D|-444444-4\3-|
A|-444444-2\1-|x8
E|-222222-----|
pm.******

Riff 2
e|-------------|
B|-------------|
G|---------4\3-|
D|-4-4-4-4-4\3-|
A|-4-4-4-4-2\1-|x4
E|-2-0-2-0-----|

Ending
e|------------|    |---------|
B|------------|    |---------|
G|--------4\3-|    |---------|
D|-444444-4\3-|    |-4-4-4---|
A|-444444-2\1-|x3  |-4-4-4---|
E|-222222-----|    |-2-2-2---|
pm.******


| /  slide up
| \  slide down
| h  hammer-on
| p  pull-off
| ~  vibrato
| +  harmonic
| x  Mute note
===============================================================================
Tap to rate this tab
# A B C D E F G H I J K L M N O P Q R S T U V W X Y Z