Song name
# A B C D E F G H I J K L M N O P Q R S T U V W X Y Z

Refused - Deadly tab

Drop D tuning

Intro
e|--------------------------------------------------------------------|
B|--------------------------------------------------------------------|
G|--------------------------------------------------------------------|
D|-4-4--4-4-4-4-4--5--4-4--2-2-2--7-2-5-2--2-7-2-5--2-7-2-5--2-7-2-5--|
A|-4-4--4-4-4-4-4--5--4-4--2-2-2--7-2-5-2--2-7-2-5--2-7-2-5--2-7-2-5--|
D|-4-4--4-4-4-4-4--5--4-4--2-2-2--7-2-5-2--2-7-2-5--2-7-2-5--2-7-2-5--|

e|-----------------------------------------------------------|
B|-----------------------------------------------------------|
G|-----------------------------------------------------------|
D|-4-4--4-4-4-4-4--5--4-4--2-2-2--7-2-5-2--7-2-5-2--7-2-5-2--|
A|-4-4--4-4-4-4-4--5--4-4--2-2-2--7-2-5-2--7-2-5-2--7-2-5-2--|
D|-4-4--4-4-4-4-4--5--4-4--2-2-2--7-2-5-2--7-2-5-2--7-2-5-2--|

e|---------------|
B|---------------|
G|---------------|
D|-7-2-5-2--4-4--|
A|-7-2-5-2--4-4--|
D|-7-2-5-2--4-4--|


Verse
e|---------------------------------------------|
B|---------------------------------------------|
G|---------------------------------------------|
D|------------------------------------2-2-2-2--|   x 4
A|-2-2-3-2-3-0-3-0-3-0-3-0-3-0-2-0-3--2-2-2-2--|
D|------------------------------------2-2-2-2--|




Chorus
e|-----------------------------------------------------|
B|-----------------------------------------------------|
G|-4-4-4-4-4-4--5-5-5-5-5-5--4-4-4-4-4-4--5-5-5-5-5-5--|
D|-4-4-4-4-4-4--5-5-5-5-5-5--4-4-4-4-4-4--5-5-5-5-5-5--|
A|-2-2-2-2-2-2--3-3-3-3-3-3--2-2-2-2-2-2--3-3-3-3-3-3--|
D|-----------------------------------------------------|

e|---------------------------------------------------------------|
B|---------------------------------------------------------------|
G|-4-4-4-4-4-4--5-5-5-5-5-5--4-4-4-4-4-4--5-5-5-5-5-5------------|
D|-4-4-4-4-4-4--5-5-5-5-5-5--4-4-4-4-4-4--5-5-5-5-5-5---2-2-2-2--|
A|-2-2-2-2-2-2--3-3-3-3-3-3--2-2-2-2-2-2--3-3-3-3-3-3---2-2-2-2--|
D|------------------------------------------------------2-2-2-2--|


Verse
e|---------------------------------------------|
B|---------------------------------------------|
G|---------------------------------------------|  
D|------------------------------------2-2-2-2--|   x 4
A|-2-2-3-2-3-0-3-0-3-0-3-0-3-0-2-0-3--2-2-2-2--|
D|------------------------------------2-2-2-2--|


Chorus
e|-----------------------------------------------------|
B|-----------------------------------------------------|
G|-4-4-4-4-4-4--5-5-5-5-5-5--4-4-4-4-4-4--5-5-5-5-5-5--|
D|-4-4-4-4-4-4--5-5-5-5-5-5--4-4-4-4-4-4--5-5-5-5-5-5--|
A|-2-2-2-2-2-2--3-3-3-3-3-3--2-2-2-2-2-2--3-3-3-3-3-3--|
D|-----------------------------------------------------|

e|-----------------------------------------------------|
B|-----------------------------------------------------|
G|-4-4-4-4-4-4--5-5-5-5-5-5--4-4-4-4-4-4--5-5-5-5-5-5--|
D|-4-4-4-4-4-4--5-5-5-5-5-5--4-4-4-4-4-4--5-5-5-5-5-5--|
A|-2-2-2-2-2-2--3-3-3-3-3-3--2-2-2-2-2-2--3-3-3-3-3-3--|
D|-----------------------------------------------------|


Fill
e|-------------------------|
B|-------------------------|
G|-------------------------|
D|-4-4--4-4-4-4-4--5--4-4--|
A|-4-4--4-4-4-4-4--5--4-4--|
D|-4-4--4-4-4-4-4--5--4-4--|

Interlude
e|---------------------------------------------------------------|
B|---------------------------------------------------------------|
G|-4~-2~-2~-4----4~-2~-2~-4----4~-2~-2~-4----4~-2--2-2-2--4-4-4--|
D|-2~-0~-4~-5----2~-0~-4~-5----2~-0~-4~-5----2~-0--4-4-4--5-5-5--|
A|---------------------------------------------------------------|
D|---------------------------------------------------------------|

e|------------------|
B|------------------|
G|-4-2-2---4-4-4----|
D|-2-0-4---4-4-4--2-|
A|---------2-2-2--2-|
E|----------------2-|


Breakdown
e|--------------------------------------------------------------------------|
B|--------------------------------------------------------------------------|
G|--4-4----4-4----4-4-4-5-5-5-5-5-5------4-4----4-4----4-4-4-5-5-5-5-5-5----|
D|--4-4-2--4-4-2--4-4-4-5-5-5-5-5-5-2----4-4-2--4-4-2--4-4-4-5-5-5-5-5-5-2--|
A|--2-2-2--2-2-2--2-2-2-3-3-3-3-3-3-2----2-2-2--2-2-2--2-2-2-3-3-3-3-3-3-2--|
D|------2------2--------------------2--------2------2--------------------2--|

e|-------------------------------------------------------------------------|
B|-------------------------------------------------------------------------|
G|--4-4----4-4----4-4-4-5-5-5-5-5-5------4-4----4-4----4-4-----------------|
D|--4-4-2--4-4-2--4-4-4-5-5-5-5-5-5-2----4-4-2--4-4-2--4-4--2--7--2--5--2--|
A|--2-2-2--2-2-2--2-2-2-3-3-3-3-3-3-2----2-2-2--2-2-2--2-2--2--7--2--5--2--|
D|------2------2--------------------2--------2------2-------2--7--2--5--2--|


Outro
e|-----------------------------------------------------|
B|-----------------------------------------------------|
G|-----------------------------------------------------|
D|-2--7--2--5--2--2-2--2-2----2--7--2--5--2--2-2--2-2--|
A|-2--7--2--5--2--2-2--2-2----2--7--2--5--2--2-2--2-2--|
D|-2--7--2--5--2--2-2--2-2----2--7--2--5--2--2-2--2-2--|

e|-----------------------------------------------------|
B|-----------------------------------------------------|
G|-----------------------------------------------------|
D|-2--7--2--5--2--2-2--2-2----2--7--2--5--2--2-2--2-2--|
A|-2--7--2--5--2--2-2--2-2----2--7--2--5--2--2-2--2-2--|
D|-2--7--2--5--2--2-2--2-2----2--7--2--5--2--2-2--2-2--|

e|-------------------------------------------------------|
B|-------------------------------------------------------|
G|-------------------------------------------------------|
D|-2--7--2--5----2--7--2--5----2--7--2--5----2--7--2--5--|
A|-2--7--2--5----2--7--2--5----2--7--2--5----2--7--2--5--|
D|-2--7--2--5----2--7--2--5----2--7--2--5----2--7--2--5--|

e|---------------------------|
B|---------------------------|
G|---------------------------|
D|-2--7--2--5----2--7--2--5--|
A|-2--7--2--5----2--7--2--5--|
D|-2--7--2--5----2--7--2--5--|

e|--------------------------------------------------------------------|
B|--------------------------------------------------------------------|
G|--------------------------------------------------------------------|
D|-2--7--2--5----2--7--2--5----2--7--2--5----2--7--2--5--2--2-2--2-2--|
A|-2--7--2--5----2--7--2--5----2--7--2--5----2--7--2--5--2--2-2--2-2--|
D|-2--7--2--5----2--7--2--5----2--7--2--5----2--7--2--5--2--2-2--2-2--|

e|-------------------------------------------------|
B|-------------------------------------------------|
G|-------------------------------------------------|
D|-2--7--2--5--2--2-2--2-2----2-2-2---2-2-2-2-2-2--|
A|-2--7--2--5--2--2-2--2-2----2-2-2---2-2-2-2-2-2--|
D|-2--7--2--5--2--2-2--2-2----2-2-2---2-2-2-2-2-2--|
	
Tap to rate this tab
# A B C D E F G H I J K L M N O P Q R S T U V W X Y Z