Guitaretab - guitar tabs
Song name
# A B C D E F G H I J K L M N O P Q R S T U V W X Y Z

Refused - Refused Party Program tab

 Refused - Refused Party Program
 Tab by: Derek Faircloth
 Tuning: Drop d (D-A-D-G-B-E)

 >/ = pick slide up
 ~  = let it ring

 I say play this and listen to the song. 
e|------------------|
B|------------------|
G|------------------| x4
D|---9~-7-9-7-9-7---|
A|---9~-7-9-7-9-7---|
D|---9~-7-9-7-9-7---|

e|---------------------------------|
B|---------------------------------|
G|---------------------------------|
D|--15-15-15-15-15-15-15-15--15----|
A|--15-15-15-15-15-15-15-15--15----|
D|--15-15-15-15-15-15-15-15--15----|
[ Tab from: http://www.guitaretab.com/r/refused/93211.html ]
e|---------(slide very quick)---------------|
B|-------->/--------------------------------|
G|-------->/--------------------------------| 
D|--9----------15-15-15-15---15-15-15-15----|
A|--9----------15-15-15-15---15-15-15-15----|
D|--9----------15-15-15-15---15-15-15-15----|

e|---------(again,very quick)--------|
B|-------->/-------------------------|
G|-------->/-------------------------| 
D|--9----------15-15-15-15---15------|
A|--9----------15-15-15-15---15------|
D|--9----------15-15-15-15---15------|

e|------------------|
B|------------------|  continue this
G|------------------|  until stumbling
D|---9~-7-9-7-9-7---|  and ending with...
A|---9~-7-9-7-9-7---|
D|---9~-7-9-7-9-7---|
   ...this 
e|------------|
B|------------|
G|------------| 
D|---9~-------|
A|---9~-------|
D|---9~-------|

             IF YOU HAVE ANY CORRECTIONS, POST 'EM
Related for Refused Party Program tab
Advertisement will be closed in 10 seconds