Song name
# A B C D E F G H I J K L M N O P Q R S T U V W X Y Z

Refused - Hook Line And Sinker tab

Refused
Hook, Line and Sinker
Tuning Drop D 

Intro
Guitar 1                                       
E-|---------------------------------------------------------|	
B-|-----0------0-----0------0------0------0------0------0---|repeat many
G-|---------------------------------------------------------|times
D-|---8b-----8b----8b-----8b-----8b-----8b-----8b-----8b----|
A-|-7------7-----7------7------7------7------7------7-------|
D-|---------------------------------------------------------|	
Guitar 2
E-|-------------------------------------------------|
B-|-------------------------------------------------|repeat as many time
G-|-------------------------------------------------|as needed then this
D-|2222220-2222220-2222220-2222220-2222220-2222220-2|<
A-|2222220-2222220-2222220-2222220-2222220-2222220-2|<
D-|2222220-2222220-2222220-2222220-2222220-2222220-2|<
   ... ... ... ... ... ... ... ... ... ... ... ...
Pre-Verse
E-|-----------------------------------------|
B-|-----------------------------------------|
G-|-----------------------------------------|
D-|2h3h5h2---2h3h5h2---2h3h5h2---2h3h5h2-6b-|
A-|2h3h5h2---2h3h5h2---2h3h5h2---2h3h5h2----|
D-|2h3h5h2---2h3h5h2---2h3h5h2---2h3h5h2----|
     
Verse
E-|------------------------------------------------------|
B-|-------------------------------------------------3-2--|
G-|------------------------------------------------------|
D-|2h3h5h2---2h3h5h2---2h3h5h2---2h3h5h2----0-1-2-3------|
A-|2h3h5h2---2h3h5h2---2h3h5h2---2h3h5h2-----------------|
D-|2h3h5h2---2h3h5h2---2h3h5h2---2h3h5h2-----------------|
     
Verse part 2
   
E-|----------------------------------------------|
B-|----------------------------------------------|
G-|----------------------------------------------|    
D-|7-------5-------------------------------------|
A-|7-------5-------------------------------------|     
D-|7-------5-------------------------------------                                          
Chorus part 1
E-|----------------------------|
B-|----------------------------|
G-|----------------------------|
D-|2h3h5h2-2-2-3-2-2-2-5-2-2-2-|
A-|2h3h5h2-2-2-3-2-2-2-5-2-2-2-| 
D-|2h3h5h2-2-2-3-2-2-2-5-2-2-2-|
    
Chorus part 2
E-|------------------------------------------|
B-|------------------------------------------|
G-|------------------------------------------|     
D-|9--8--7---------9--8--7-------------------|
A-|9--8--7---------9--8--7-------------------|
D-|9--8--7---------9--8--7-------------------|

Repeat Intro
               
End
             
E-|-------------------------------------------------------------|
B-|-------------------------------------------------------------|
G-|-------------------------------------------------------------|
D-|-2--2--2----9--8--7-----2--2--2----9--8--7-----2--2--2------2|
A-|-2--2--2----9--8--7-----2--2--2----9--8--7-----2--2--2------2|
D-|-2--2--2----9--8--7-----2--2--2----9--8--7-----2--2--2------2|
           
Tap to rate this tab
# A B C D E F G H I J K L M N O P Q R S T U V W X Y Z