Song name
# A B C D E F G H I J K L M N O P Q R S T U V W X Y Z

Reggie And The Full Effect - Congratulations Smack And Katie tab

Reggie And The Full Effects
Congratulations Smack And Katie
Tabbed by: "Kyotaro" kyotaro8oenagi@yahoo.com
Tuning : DADGBE

Intro:

D-----------------------------------------------------------|
A----7-7---5----4h5--------7~----5-----4h5h4-0--------------|
D-----------------------------------------------------------|
G-----------------------------------------------------------|
B-----------------------------------------------------------|
E-----------------------------------------------------------| 4x

   DISTORTION

D-----0-----9-----4-5-------|
A-----0-----9-----4-5-------|
D-----0-----9-----4-5-------|
G---------------------------|
B---------------------------|
E---------------------------|

    VERSE/ VERSE 2

D-----7--------4-----5-9--7-----------|
A-----7--------4-----5-9--7-----------|
D-----7--------4-----5-9--7-----------|
G-------------------------------------|
B-------------------------------------|
E-------------------------------------|

      CHORUS

D-----0-----9-----4------ 5-----|
A-----0-----9-----4-------5-----|
D-----0-----9-----4-------5-----|
G-------------------------------|
B-------------------------------|
E-------------------------------|

BRIDGE


D----------9---7---5---------------------|
A----------9---7---5---------------------|
D----------9---7---5---------------------|
G----------------------------------------|
B----------------------------------------|
E----------------------------------------|

I was simply bored, get my guitar and wanted the tab badly for this song!
Hope You enjoy and update me if anything is wrong in this tab
PeAcE!
Tap to rate this tab
# A B C D E F G H I J K L M N O P Q R S T U V W X Y Z