Song name
# A B C D E F G H I J K L M N O P Q R S T U V W X Y Z

Reggie And The Full Effect - Fuck Stops Here tab

Drop D Tuning
.=Palm muting
Intro/verse

e----------------------------------------------------------------------|
b----------------------------------------------------------------------|
g----------------------------------------------------------------------|
d---0--0-0-0-0-0-0--0--0--0--0-0--0--0-0-0-0---------------------------|
a---0--0-0-0-0-0-0--0--0--0--0-0--0--0-0-0-0---------------------------|
D---0--0-0-0-0-0-0--0--0--0--0-0--0--0-0-0-0---3-2-0-1---6-------------|
Bend the string in a little on the last note.

pre chorus
e----------------------------------|
b----------------------------------|
g----------------------------------|
d-8-8-8-8-8-8-8-8-5-5-5-5-5-5-5-5--|
a-8-8-8-8-8-8-8-8-5-5-5-5-5-5-5-5--|
D-8-8-8-8-8-8-8-8-5-5-5-5-5-5-5-5--|

 Chorus
e------------------------------------------------------------|
b------------------------------------------------------------|
g------------------------------------------------------------|
d-0-0-0-0-0-0-0-0-3-3-3-3-3-3-3-3-8-8-8-8-8-8-8--------------|
a-0-0-0-0-0-0-0-0-3-3-3-3-3-3-3-3-8-8-8-8-8-8-8--------------|
D-0-0-0-0-0-0-0-0-3-3-3-3-3-3-3-3-8-8-8-8-8-8-8--3-3-2-2---6-|
                                                 . . . .
Bridge
e---------------------------------------------------------------|
b---------------------------------------------------------------|
g---------------------------------------------------------------|
d---0-0-0-0-0-0-0-0-0-0-0-0-0-0-0-0-0---------------------------|
a---0-0-0-0-0-0-0-0-0-0-0-0-0-0-0-0-0---------------------------|
D---0-0-0-0-0-0-0-0-0-0-0-0-0-0-0-0-0---3-2-0-1---6-------------|
    . . . . . . . . . . . . . . . . .

Ending
e--------------------------------------------------------------------------|
b--------------------------------------------------------------------------|
g--------------------------------------------------------------------------|
d------------------------------------------------------------------------0-|
a------------------------------------------------------------------------0-|
D-3-2-0-1---6--3-2-0-1---6--3-2-0-1---6--3-2-0-1-3-2-0-1-3-2-0-1-3-2-0-1-0-|

Song structure
Intro/verse x8
pre Chrous
Intro/verse
pre Chorus
Intro/verse x5
pre Chorus
Intro/verse
pre chrous
chorus x2
intro/verse X4
Bridge x4
pre chrous
intro/verse
pre chrous
Chorus x4
intro/verse x3
Ending
Tap to rate this tab
# A B C D E F G H I J K L M N O P Q R S T U V W X Y Z