Song name
# A B C D E F G H I J K L M N O P Q R S T U V W X Y Z

Reggie And The Full Effect - What The Hell Is A Stipulation tab

-----------------------------------------------------------------------------        
What the hell is a Stipulation? - Reggie and the Full Effect
-----------------------------------------------------------------------------

Tuning: Drop D (DADGBe)

It sounds ok but you might have to listen to get some of the strumming...

Verse  (Listen for strumming)
e|---------|
B|---------|
G|---------|
D|----0----|
A|----0----|
D|----0----|

Chorus
e|-----------------------------------------|
B|-----------------------------------------|
G|-----------------------------------------|
D|--0-----5-7--2-----5-7--3----7-5--8------|
A|--0-x4--5-7--2-x4--5-7--3-x4-7-5--8-x5---|
D|--0-----5-7--2-----5-7--3----7-5--8------|


Repeat Verse


3rd Verse   (Listen for strumming)
e|---------------------|
B|---------------------|
G|---------------------|
D|---5---8---3---1-----|
A|---5---8---3---1-----|
D|---5---8---3---1-----|


Repeat Verse


Repeat Chorus


Repeat verse until song ends
Tap to rate this tab
# A B C D E F G H I J K L M N O P Q R S T U V W X Y Z