Song name
# A B C D E F G H I J K L M N O P Q R S T U V W X Y Z

Reggie And The Full Effect - Apocalypse Wow tab

Reggie and the Full Effect
Apocalypse Wow!
Under the Tray
Tabbed by Brasky
C# tuning

Intro
|------------------------------------------------------------|
|------11--10--8--6--8--6--------------11-10-11-13-11-10-8---|
|---7--------------------6--x5-----7-------------------------|
|------------------------------------------------------------|
|------------------------------------------------------------|
|------------------------------------------------------------|

  Harmony part
|------10--8--6--5--6--5----------------------------------|
|-------------------------6-------------------------------|
|---7-----------------------------------------------------|
|---------------------------------------------------------|
|---------------------------------------------------------|
|---------------------------------------------------------|

These are the chords used throughout the song (palm mute for verses)
|---------------------|
|---------------------|
|---------------------|
|--2---3---7---5------|
|--2---3---7---5------|
|--0---1---5---3------|

Not sure about the correctness of this tab, but its pretty close. you find a problem, 
me: gamingology101@hotmail.com. peace
Tap to rate this tab
# A B C D E F G H I J K L M N O P Q R S T U V W X Y Z