Song name
# A B C D E F G H I J K L M N O P Q R S T U V W X Y Z

Reggie And The Full Effect - What The Hell Is Stipulation tab

All credit on this tab goes to: Brasky

!!please rate!!

UPDATED!! i tabbed out the whole song in order instead of dif parts.

Pick faster up and down for right sound on two middle parts of intro
You dont need pinched harmonics it just sounds better to me....

 Intro riff 1
|---------------------------------------------------|
|---------------------------------------------------|
|---------------------------------------------------|
|----000-xx000-xx000-00000--------------------------| repeat x4 then
|----000-xx000-xx000-00000--------------------------|
|----000-xx000-xx000-00000--------------------------|
PM...... ..... ..... .....

 Intro riff 2
|-------------------------|
|-----------------7-------|
|-------7----7---------7--|
|----0----0----0----0-----|
|----0----0----0----0-----|
|----0----0----0----0-----|
       P^   P^   P^   P^   

(Im pretty sure they're pinched harmonics)


|---------------------------------------------------|
|---------------------------------------------------|
|---------------------------------------------------|
|----000-xx000-xx000-00000--------------------------| x8
|----000-xx000-xx000-00000--------------------------|
|----000-xx000-xx000-00000--------------------------|
PM...... ..... ..... .....


 Chorus x4
|------------------------------------------------|
|------------------------------------------------|
|------------------------------------------------|
|--0000--5-7---2222--5-7--3333--7-5--88888888----|
|--0000--5-7---2222--5-7--3333--7-5--88888888----|
|--0000--5-7---2222--5-7--3333--7-5--88888888----|
PM.....      PM....     PM....     


|-------------------------|
|-----------------7-------|
|-------7----7---------7--|
|----0----0----0----0-----|
|----0----0----0----0-----|
|----0----0----0----0-----|
       p^   p^   p^    p^

|---------------------------------------------------|
|---------------------------------------------------|
|---------------------------------------------------|
|----000-xx000-xx000-00000--------------------------| x4 
|----000-xx000-xx000-00000--------------------------|
|----000-xx000-xx000-00000--------------------------|
 PM  ... ..... ..... .....


 Chorus x4
|----------------------------------------------|------------|
|----------------------------------------------|------------|
|----------------------------------------------|--(end on)--|
|--0000--5-7---2222--5-7--3333--7-5--88888888--|--8---------|
|--0000--5-7---2222--5-7--3333--7-5--88888888--|--8---------|
|--0000--5-7---2222--5-7--3333--7-5--88888888--|--8---------|
PM.....      PM....     PM....     


 Interlude x2
|-------------------------------------------------------------------------|
|-------------------------------------------------------------------------|
|-------------------------------------------------------------------------|
|--5555555555555555--8888888888888888--3333333333333333--1111111111111111-|
|--5555555555555555--8888888888888888--3333333333333333--1111111111111111-|
|--5555555555555555--8888888888888888--3333333333333333--1111111111111111-|
         
|-------------------------|
|-----------------7-------|
|-------7----7---------7--|
|----0----0----0----0-----| x2
|----0----0----0----0-----|
|----0----0----0----0-----|
       p^   p^   p^    p^

 Chorus x4
|----------------------------------------------|------------|
|----------------------------------------------|------------|
|----------------------------------------------|--(end on)--|
|--0000--5-7---2222--5-7--3333--7-5--88888888--|--8---------|
|--0000--5-7---2222--5-7--3333--7-5--88888888--|--8---------|
|--0000--5-7---2222--5-7--3333--7-5--88888888--|--8---------|
PM.....      PM....     PM....     
 

 Outro
|------------------------------------------------|
|------------------------------------------------|
|------------------------------------------------|
|----000-xx000-xx000-00000-----------------------| x8 
|----000-xx000-xx000-00000-----------------------|
|----000-xx000-xx000-00000-----------------------|
   PM... ..... ..... .....
 
|------------------------------------------------|
|------------------------------------------------|
|------------------------------------------------|
|----000-xx000-xx000-xx00-00---------------------| x4
|----000-xx000-xx000-xx00-00---------------------|
|----000-xx000-xx000-xx00-00---------------------|
   PM... ..... ..... .....
Tap to rate this tab
# A B C D E F G H I J K L M N O P Q R S T U V W X Y Z