Song name
# A B C D E F G H I J K L M N O P Q R S T U V W X Y Z

Regina Spektor - Prisoners tab

-----------------------------------------------------------------------------
			     PRISONERS - Regina Spektor
-----------------------------------------------------------------------------
Tabbed by:jake nikolas
Email:xxx92gibsonxxx@aol.com

Tuning:standard

its really simple i just felt like writing it out because i didnt want to forget it
sorry if its not what your looking for

e|------------------------------------------------------------------2--|
B|---3----2----3----2-----3----2----3----2h3p2-0h2-----3----3----2-----|
G|---------------------------------------------------0-----------------|
D|------0----2---------------0----2----4-----------------------4-------|
A|-2--------------------2---------------------------------2------------|
E|----------------3-------------------------------------------------2--|


e|------------------------------0-2-3-5-------------------------------------|
B|---3-3----3-3-----2h3p2-0-2-3---------------------------------------------|
G|--------------------------------------------------------------------------|
D|-2--------------4---------------------------------------------------------|
A|--------------------------------------------------------------------------|
E|--------3-----------------------------------------------------------------|
Tap to rate this tab
# A B C D E F G H I J K L M N O P Q R S T U V W X Y Z